Guitaretab - guitar tabs
Song name
# A B C D E F G H I J K L M N O P Q R S T U V W X Y Z

Love As Laughter - Dirty Lives tab

Song: Dirty Lives
Artist: Love As Laughter
Album: Laughter's Fifth

Intro:

E-----------------|-----------------|-----------------|-----------------|
B-----------------|-----------------|-----------------|-----------------|
G------------9----|9----------------|-----------------|-----------------|
D--------------11-|--11-------12-9--|-----------------|-----------------|
A-9-10-11-12------|-----12-10-------|10---------------|-----------------|
E-----------------|-----------------|-----------------|-----------------|

This next part is played throughout the song; listen 
to the song to get the exact rhythm.
[ Tab from: http://www.guitaretab.com/l/love-as-laughter/177547.html ]
                                       (May also be played)
E-----------------|-----------------|-----------------|-----------------|
B-----------------|-----------------|-----------------|-----------------|
G-7-x-7-x-7-xxx---|-12-12-12-11-----|--12-12-12-11----|-----------------|
D-7-x-7-x-7-xxx---|-10-10-10--9-----|--12-12-12-11----|-----------------|
A-5-x-5-x-5-xxx---|-10-10-10--9-----|-----------------|-----------------|
E-----------------|-----------------|-----------------|-----------------|

The rhythm of this part changes up throughout the song, 
it's never really concrete. So just listen to the song and 
try and figure it. The 12/11's are also played building 
up to the solo. Listen to the song and you'll hear what I mean.

Solo


E-----------------|-----------------|-----------------|-----------------|
B-----------------|-----------------|-----------------|-----------------|
G----11-12s14-14--|-14-14-12-11-----|----12-11--------|-----------------|
D-12--------------|-------------14--|-12-------14-12--|-----------------|
A-----------------|-----------------|-----------------|-----------------|
E-----------------|-----------------|-----------------|-----------------|
The solo is played twice. It basically goes: solo, 12/11 build-up, solo.

This tab is just so you can get a good idea of how the song plays, 
and by listening to it you can then hopefully get down when 
each part comes in. I just think it would be too long and 
monotonous to tab the entire thing out.

Any questions, comments, corrections, etc. Contact me at jammin_cammin@hotmail.com 
Related for Dirty Lives tab