Guitaretab - guitar tabs
Song name
# A B C D E F G H I J K L M N O P Q R S T U V W X Y Z

Love Bites - Hes Fit tab

Love Bites - He's Fit

Again, this tab and it isn't pefect. Any Corrections... email paulandben@hotmail.com.

sb=slight bend
~=let ring


Intro

Guitar 1
e|----------------------------------------------|
B|----------------------------------------------|
G|--9-99----------------------------------------|
D|--9-99--77--1010--55--------------------------|X4
A|--7-77--77--1010--55--------------------------|
E|--------55--8-8---33--------------------------|



Verse

Guitar 1
e|----------------------------------------------|
B|----------------------------------------------|
G|--9-9999--------------------------------------|
D|--9-9999--7-7777--10-10101010--5-5555---------|X2
A|--7-7777--7-7777--10-10101010--5-5555---------|
E|----------5-5555--8--8-8-8-8---3-3333---------|

Guitar 1
e|----------------------------------------------|
B|----------------------------------------------|
G|----------------------------------------------|
D|--5-6-7---------------------------------------|X1
A|--5-6-7---------------------------------------|
E|--3-4-5---------------------------------------|

Guitar 1
e|----------------------------------------------|
B|----------------------------------------------|
G|--9-9999--------------------------------------|
D|--9-9999--7-7777--10-10101010--5-5555---------|X2
A|--7-7777--7-7777--10-10101010--5-5555---------|
E|----------5-5555--8--8-8-8-8---3-3333---------|

Guitar 1
e|----------------------------------------------|
B|----------------------------------------------|
G|----------------------------------------------|
D|--5-6-7---------------------------------------|X1
A|--5-6-7---------------------------------------|
E|--3-4-5---------------------------------------|



Chorus 1

Guitar 1
e|----------------------------------------------|
B|----------------------------------------------|
G|----------5-5555------------------------------|
D|--3-3333--5-5555--5-5555--5-5555--------------|X3
A|--3-3333--3-3333--5-5555--5-5555--------------|
E|--1-1111----------3-3333--3-3333--------------|

Guitar 2
e|--7-8----7-8----7-8----7-8--10----------------|
B|------8------8------8-------------------------|
G|----------------------------------------------|
D|----------------------------------------------|X3
A|----------------------------------------------|
E|----------------------------------------------|

Guitar 1
e|----------------------------------------------|
B|----------------------------------------------|
G|----------5-55--------------------------------|
D|--3-3-33--5-55--5~----------------------------|X1
A|--3-3-33--3-33--5~----------------------------|
E|--1-1-11--------3~----------------------------|

Guitar 2
e|--7-8----7-8----7~----------------------------|
B|------8------8--------------------------------|
G|----------------------------------------------|
D|----------------------------------------------|X1
A|----------------------------------------------|
E|----------------------------------------------|



Pre-Verse

Guitar 1
e|----------------------------------------------|
B|----------------------------------------------|
G|----------------------------------------------|
D|--5-6-7---------------------------------------|X1
A|--5-6-7---------------------------------------|
E|--3-4-5---------------------------------------|



Verse 2

Guitar 1
e|----------------------------------------------|
B|----------------------------------------------|
G|--9-9999--------------------------------------|
D|--9-9999--7-7777--10-10101010--5-5555---------|X3
A|--7-7777--7-7777--10-10101010--5-5555---------|
E|----------5-5555--8--8-8-8-8---3-3333---------|

Guitar 1
e|----------------------------------------------|
B|----------------------------------------------|
G|----------------------------------------------|
D|--5-6-7---------------------------------------|X1
A|--5-6-7---------------------------------------|
E|--3-4-5---------------------------------------|



Chorus 2

Guitar 1
e|----------------------------------------------|
B|----------------------------------------------|
G|----------5-5555------------------------------|
D|--3-3333--5-5555--5-5555--5-5555--------------|X3
A|--3-3333--3-3333--5-5555--5-5555--------------|
E|--1-1111----------3-3333--3-3333--------------|
[ Tab from: http://www.guitaretab.com/l/love-bites/70207.html ]
Guitar 2
e|--7-8----7-8----7-8----7-8--10----------------|
B|------8------8------8-------------------------|
G|----------------------------------------------|
D|----------------------------------------------|X3
A|----------------------------------------------|
E|----------------------------------------------|

Guitar 1
e|----------------------------------------------|
B|----------------------------------------------|
G|----------5-5555------------------------------|
D|--3-3333--5-5555--5-5555--5-5555--------------|X1
A|--3-3333--3-3333--5-5555--5-5555--------------|
E|--1-1111----------3-3333--3-3333--------------|

Guitar 2
e|--7-8----7-8----7~----------------------------|
B|------8------8--------------------------------|
G|----------------------------------------------|
D|----------------------------------------------|X1
A|----------------------------------------------|
E|----------------------------------------------|



Bridge

Guitar 1
e|----------------------------------------------|
B|----------------------------------------------|
G|--5~-55-----9~--10~--12~----------------------|
D|--5~-55-5~--9~--10~--12~----------------------|X1
A|--3~-33-5~--7~--8-~--10~----------------------|
E|--------3~------------------------------------|

Guitar 1
e|----------------------------------------------|
B|----------------------------------------------|
G|--5---------9----10----12---------------------|
D|--5x10-5----9x10-10x5--12x5-------------------|X1
A|--3----5x10-7----8-----10---------------------|
E|-------3--------------------------------------|



Solo

Guitar 1
e|----------------------------------------------|
B|----------------------------------------------|
G|----------5-5555------------------------------|
D|--3-3333--5-5555--5-5555--5-5555--------------|X3
A|--3-3333--3-3333--5-5555--5-5555--------------|
E|--1-1111----------3-3333--3-3333--------------|

Guitar 2
e|----------------------------------------------|
B|----------------------------------------------|
G|--10101010-9-7-5-5799-7-5-7~------------------|
D|----------------------------------------------|X3
A|----------------------------------------------|
E|----------------------------------------------|

Guitar 3
e|--7-8----7-8----7-8---7~----------------------|
B|------8------8------8-------------------------|
G|----------------------------------------------|
D|----------------------------------------------|X1
A|----------------------------------------------|
E|----------------------------------------------|

Guitar 1
e|----------------------------------------------|
B|----------------------------------------------|
G|----------5-55--------------------------------|
D|--3-3-33--5-55--5~----------------------------|X1
A|--3-3-33--3-33--5~----------------------------|
E|--1-1-11--------3~----------------------------|

Guitar 2
e|----------------------------------------------|
B|----------------------------------------------|
G|--75~-5(sb)-4---------------------------------|
D|----------------------------------------------|X1
A|----------------------------------------------|
E|----------------------------------------------|

Guitar 3
e|--7-8----7-8----7~----------------------------|
B|------8------8--------------------------------|
G|----------------------------------------------|
D|----------------------------------------------|X1
A|----------------------------------------------|
E|----------------------------------------------|



Chorus 3

Guitar 1
e|----------------------------------------------|
B|----------------------------------------------|
G|----------5-5555------------------------------|
D|--3-3333--5-5555--5-5555--5-5555--------------|X4
A|--3-3333--3-3333--5-5555--5-5555--------------|
E|--1-1111----------3-3333--3-3333--------------|

Guitar 2
e|--7-8----7-8----7-8----7-8--10----------------|
B|------8------8------8-------------------------|
G|----------------------------------------------|
D|----------------------------------------------|X4
A|----------------------------------------------|
E|----------------------------------------------|

Guitar 1
e|----------------------------------------------|
B|----------------------------------------------|
G|----------5-55--------------------------------|
D|--3-3-33--5-55--5~----------------------------|X1
A|--3-3-33--3-33--5~----------------------------|
E|--1-1-11--------3~----------------------------|

Guitar 2
e|--7-8----7-8----7~----------------------------|
B|------8------8--------------------------------|
G|----------------------------------------------|
D|----------------------------------------------|X1
A|----------------------------------------------|
E|----------------------------------------------|
Related for Hes Fit tab
Hes Fit chords by Love Bites