Song name
# A B C D E F G H I J K L M N O P Q R S T U V W X Y Z

Love Equals Death - Pray For Me tab

Artist: Sixx:A.M.
Song: Pray For Me
Album: The Heroin Diaries Soundtrack
Tuning: Drop D (DADGBe)

Note: These are the parts I've figured out by now. They are mostly for the rhythm guitar.
I'll keep adding new parts, but until then, the ones below will give you a pretty
good idea of the song.
It sounds pretty accurate to me. Enjoy!

Intro:

Rhythm Guitar
e-------------------------------|
B-------------------------------|
G-------------------------------|
D---4-4--7-7--4-4--4/99--77-----|
A---4-4--7-7--4-4--4/99--77-----|
D---4-4--7-7--4-4--4/99--77-----|

Verse:

Rhythm Guitar                                                *end on*
e----------------------------------------------------------|----------|
B----------------------------------------------------------|----------|
G----------------------------7-7--2-2--6-6-----------------|-----7----|
D---4-4--7-7--4-4--4/99--77--7-7--2-2--6-6--4/7-9-7\4------|-----7----|
A---4-4--7-7--4-4--4/99--77--5-5--0-0--4-4--4/7-9-7\4------|-----5----|
D---4-4--7-7--4-4--4/99--77-----------------4/7-9-7\4------|----------|

Chorus:

Rhythm Guitar
e--------------------------------------------------|
B--------------------------------------------------|
G-----------------------------------7-77--6-66-----|
D---4--44444--4/7--7777777--999999--7-77--6-66-----|
A---4--44444--4/7--7777777--999999--5-55--4-44-----|
D---4--44444--4/7--7777777--999999-----------------|

Solo Guitar
e----------------------------------------------------------|
B----------------------------------------------------------|
G--------------------------2/4-4-6p4-222-1111-222-44-------|
D---4-4444-4-4/7--7777777----------------------------------|
A---4-4444-4-4/7--7777777----------------------------------|
D---4-4444-4-4/7--7777777----------------------------------|

Bridge:

Rhythm Guitar                     *end on*
e-------------------------------|----------|
B-------------------------------|----------|
G-------------------------------|-----7----|
D---4-4--7-7--4-4--4/99--77-----|-----7----|
A---4-4--7-7--4-4--4/99--77-----|-----5----|
D---4-4--7-7--4-4--4/99--77-----|----------|

Outro:

Rhythm Guitar                                        *last time*
e--------------------------------------------------|-------------|
B--------------------------------------------------|-------------|
G-----------------------------------7-77--6-66-----|----777--6---|
D---4--44444--4/7--7777777--999999--7-77--6-66-----|----777--6---|
A---4--44444--4/7--7777777--999999--5-55--4-44-----|----555--4---|
D---4--44444--4/7--7777777--999999-----------------|-------------|
Tap to rate this tab
# A B C D E F G H I J K L M N O P Q R S T U V W X Y Z