Song name
# A B C D E F G H I J K L M N O P Q R S T U V W X Y Z

Love Equals Death - Voc Voice Of Change tab

V.O.C. (Voice of Change) Tab by Love Equals Death
Tabbed by: kharis92007
Email: kharis92007@yahoo.com

Tuning: Drop D
x- palm mute

Intro

e-----|
b-----|
G-----|
D-----|
A-9999|
D-9999|
  xxxx
x16

Pre-Verse

e-----------------------------------------|
b-----------------------------------------|
G-----------------------------------------|
D-99----5-7-99----5-7-99----5-7-99----5-7-|
A-99----5-7-99----5-7-99----5-7-99----5-7-|
D-99----5-7-99----5-7-99----5-7-99----5-7-|

Verse 1

e-----------------------------------------|
b-----------------------------------------|
G-----------------------------------------|
D-99----5-7-99----5-7-99----5-7-99----5-7-|
A-99----5-7-99----5-7-99----5-7-99----5-7-|
D-99----5-7-99----5-7-99----5-7-99----5-7-|
x2

Chorus

e---------------------------|
b---------------------------|
G---------------------------|
D-7---12---9----------------|
A-7---12---9-99999999999999-|
D-7---12---9-99999999999999-|
	     xxxxxxxxxxxxxx
x3

e-------------------------------------|
b-------------------------------------|
G-------------------------------------|
D-9-999999999999999--7-77777777777777-|
A-9-999999999999999--7-77777777777777-|
D-9-999999999999999--7-77777777777777-|
    xxxxxxxxxxxxxxx    xxxxxxxxxxxxxx

Verse 2

e-----------------------------------------|
b-----------------------------------------|
G-----------------------------------------|
D-99----5-7-99----5-7-99----5-7-99----5-7-|
A-99----5-7-99----5-7-99----5-7-99----5-7-|
D-99----5-7-99----5-7-99----5-7-99----5-7-|

Chorus

Outro

e-----------------------------------------------|
b-----------------------------------------------|
G-----------------------------------------------|
D-99----5-7-99----5-7-99----5-7-99----5-7-99-7-9|
A-99----5-7-99----5-7-99----5-7-99----5-7-99-7-9|
D-99----5-7-99----5-7-99----5-7-99----5-7-99-7-9|

That's it. Buy their CD “Nightmerica” on Fat Wreck Chords.
Tap to rate this tab
# A B C D E F G H I J K L M N O P Q R S T U V W X Y Z