Song name
# A B C D E F G H I J K L M N O P Q R S T U V W X Y Z

Love Hate - Blackout In The Red Room tab

-------------------------------------------------------------------------------
		    Blackout in the Red Room - Love/Hate
-------------------------------------------------------------------------------
Tabbed by: OzzyRules3

Official Website: http://www.lovehate.com/

Tuning: Standard

Opening:

     Q.  Q.  Q.  Q.      W.                   Q.  Q.  Q.  Q.
e|-------------------|-------------------|-------------------|
B|-------------------|-------------------|-------------------|
G|-----------7-------|-------------------|-----------7-------|
D|---2---5---7---5---|---5---------------|---2---5---7---5---|
A|---2---5---5---5---|---5---------------|---2---5---5---5---|
E|---0---3-------3---|---3---------------|---0---3-------3---|

Verse:

     Q.                  Q.                  Q.
e|-------------------|-------------------|-------------------|
B|-------------------|-------------------|-------------------|
G|-------------------|-------------------|-------------------|
D|---7---------------|---2---------------|---7---------------|
A|---7---------------|---2---------------|---7---------------|
E|---5---------------|---0---------------|---5---------------|

     Q.  Q.  Q.  Q.      Q.                  Q.  
e|-------------------|-------------------|-------------------|
B|-------------------|-------------------|-------------------|
G|-----------7-------|-------------------|-------------------|
D|---2---5---7---5---|---7---------------|---2---------------|
A|---2---5---5---5---|---7---------------|---2---------------|
E|---0---3-------3---|---5---------------|---0---------------|

     W.                  Q.  Q.  Q.  Q.   
e|-------------------|-------------------|
B|-------------------|-------------------|
G|-------------------|-----------7-------|
D|---7---------------|---2---5---7---5---|
A|---7---------------|---2---5---5---5---|
E|---5---------------|---0---3-------3---|

Chorus 1:
 
     H.     H.           E.  E. D.H.         E.E.E.Q.E.Q.
e|-------------------|-------------------|-------------------|
B|-------------------|-------------------|-------------------|
G|---5---------------|---7---------------|-------5-----------|
D|---5------5--------|---7---7--7--------|-----5-------5-----|
A|---3------5--------|---5---7--7--------|---3-------5-------|
E|----------3--------|-------5--5--------|---------3---------|

     E.  E. D.H.
e|-------------------|
B|-------------------|
D|---7---------------|
G|---7---7--7--------|
A|---5---7--7--------|
E|-------5--5--------|

Verse:

     Q.                  Q.                  Q.
e|-------------------|-------------------|-------------------|
B|-------------------|-------------------|-------------------|
G|-------------------|-------------------|-------------------|
D|---7---------------|---2---------------|---7---------------|
A|---7---------------|---2---------------|---7---------------|
E|---5---------------|---0---------------|---5---------------|

     Q.  Q.  Q.  Q.      Q.                  Q.  
e|-------------------|-------------------|-------------------|
B|-------------------|-------------------|-------------------|
G|-----------7-------|-------------------|-------------------|
D|---2---5---7---5---|---7---------------|---2---------------|
A|---2---5---5---5---|---7---------------|---2---------------|
E|---0---3-------3---|---5---------------|---0---------------|

     W.                  Q.  Q.  Q.  Q.   
e|-------------------|-------------------|
B|-------------------|-------------------|
G|-------------------|-----------7-------|
D|---7---------------|---2---5---7---5---|
A|---7---------------|---2---5---5---5---|
E|---5---------------|---0---3-------3---|

Chorus 2:

     H.     H.           E.  E. D.H.         E.E.E.Q.E.Q.
e|-------------------|-------------------|-------------------|
B|-------------------|-------------------|-------------------|
G|---5---------------|---7---------------|-------5-----------|
D|---5------5--------|---7---7--7--------|-----5-------5-----|
A|---3------5--------|---5---7--7--------|---3-------5-------|
E|----------3--------|-------5--5--------|---------3---------|

     E.  E. D.H.
e|-------------------|
B|-------------------|
D|---7---------------|
G|---7---7--7--------|
A|---5---7--7--------|
E|-------5--5--------|

     H.     H.           E.  E. D.H.
e|-------------------|-------------------|
B|-------------------|-------------------|
G|---5---------------|---7---------------|
D|---5------5--------|---7---7--7--------|
A|---3------5--------|---5---7--7--------|
E|----------3--------|-------5--5--------|

Chorus 3:

     H.     H.           E.  E. D.H.         E.E.E.Q.E.Q.
e|-------------------|-------------------|-------------------|
B|-------------------|-------------------|-------------------|
G|---5---------------|---7---------------|-------5-----------|
D|---5------5--------|---7---7--7--------|-----5-------5-----|
A|---3------5--------|---5---7--7--------|---3-------5-------|
E|----------3--------|-------5--5--------|---------3---------|

     E.  E. D.H.
e|-------------------|
B|-------------------|
D|---7---------------|
G|---7---7--7--------|
A|---5---7--7--------|
E|-------5--5--------|

     H.     H.           E.  E. D.H.         E.E.E.Q.E.Q.
e|-------------------|-------------------|-------------------|
B|-------------------|-------------------|-------------------|
G|---5---------------|---7---------------|-------5-----------|
D|---5------5--------|---7---7--7--------|-----5-------5-----|
A|---3------5--------|---5---7--7--------|---3-------5-------|
E|----------3--------|-------5--5--------|---------3---------|

     E.  E. D.H.
e|-------------------|
B|-------------------|
D|---7---------------|
G|---7---7--7--------|
A|---5---7--7--------|
E|-------5--5--------|

Bridge Guitar Lead:

e|-------------------|--------------7+---|-------------------|
B|-------------------|-------------------|-------------------|
G|-------------------|-------------------|-------------------|
D|--7p5h7p5h7p5h7p5--|--7p5h7p5h7p5------|--7p5h7p5h7p5h7p5--|
A|-------------------|-------------------|-------------------|
E|-------------------|-------------------|-------------------|



Opening
Verse
Chorus 1
Bridge (Verse with Guitar Lead)
Verse
Chorus 2
Bridge (Verse with Guitar Lead)
Solo (Played over Verse)
Chorus 3
Closing (Opening 2x, Bridge Guitar Lead Played)

***********************************

E.: Eighth note
Q.: Quarter note
H.: Half note
W.: Whole note
D.H.: Dotted half note

***********************************

| /   slide up
| \   slide down
| h   hammer-on
| p   pull-off
| ~   vibrato
| +   harmonic
| x   Mute note
| b   Bend
| pb  Pre-bend
| br  Bend release
| pbr Pre-bend release
| brb Bend release bend

************************************
Tap to rate this tab
# A B C D E F G H I J K L M N O P Q R S T U V W X Y Z