Song name
# A B C D E F G H I J K L M N O P Q R S T U V W X Y Z

Love Like Electrocution - With Horses In Her Eyes She Spat Like A Wildcat tab

Love Like...Electrocution
With Horses in Her Eyes, She Spat Like a Wildcat
Self Titled


Tabbed by: Robert Lydecker

Tuning: EADGBe

This tab isn't perfect, but it's close.

==============
0:00-0:07
==============
Guitar 1
e|--------------------------------|
B|-------0-0~~-0-0~~-0-0~~-0-0~~--|
G|--4~~~~4-4~~-4-4~~-4-4~~-4-4~~--|
D|--x----x-x---x-x---x-x---x-x----|
A|--3~~~p0h3~~p0h3~~p0h3~~p0h3~~--|
E|--------------------------------|

Guitar 2

e|----------------------------------|
B|----------------------------------|
G|----------------------------------|
D|----------------------------------|
A|----------------------------------|
E|----------------------------------|


==============
0:07-0:14
==============
Guitar 1
e|-----------------------------------|
B|--------5p0h3h5--------------------| 
G|--4444---------4------------888888-|
D|--xxxx--------------222222--xxxxxx-| x2
A|--3333--------------222222--666666-| 
E|--------------------000000---------| 

Guitar 2
e|-----------------------------------|
B|-----------------------------------|
G|-4444-----------------------888888-|
D|-xxxx---------------222222--xxxxxx-|x2
A|-3333---------------222222--666666-|
E|--------------------000000---------|


==============
0:14-0:31
==============

Guitar 1
this part i'm not certain of
e|--------------------------------2p0---------------------------------|
B|---3p0-5p0-3p0-----3p0-5p0-3p0------3p0-5p0-3p0---------------------|
G|---------------4p0------------------------------4p0---------888888--|
D|--2---2---2---2-------------------------------------222222--xxxxxx--| x2
A|------------------3---3---3---3----2---2---2---2----222222--666666--|
E|----------------------------------------------------000000----------|

Guitar 2
e|------------------------------------------------|
B|--55555555--------------------------------------|
G|--44444444--44444444--44444444----------888888--|
D|--22222222--55555555--44444444--222222--xxxxxx--|x2
A|------------33333333--22222222--222222--666666--|
E|--------------------------------000000----------|


==============
0:31-0:39
==============

Guitar 1
e|----\3p2--\3p2--\3p2----------|
B|------------------------------|
G|---------------------444444---|
D|--2~----2~----2~-----xxxxxx---|x2
A|--2~----2~----2~-----333333---|
E|--0~----0~----0~--------------|

Guitar 2
e|------------------------------|
B|------------------------------|
G|---------------------444444---|
D|--2~~~~~2~~~~~2~~~~~~xxxxxx---|x2
A|--2~~~~~2~~~~~2~~~~~~333333---|
E|--0~~~~~0~~~~~0~~~~~~---------|


==============
0:39-0:49
==============
Guitar 1
e|------------------------------------------------------------------|
B|------------------------------------------------------------------|
G|--444444--444444--444444--444444--444444--444444--444444--444444--|
D|--xxxxxx--xxxxxx--xxxxxx--xxxxxx--xxxxxx--xxxxxx--555555--555555--|
A|--333333--333333--555555--555555--777777--777777------------------|
E|------------------------------------------------------------------|

Guitar 2
e|------------------------------------------------------------------|
B|------------------------------------------------------------------|
G|--444444--444444--444444--444444--444444--444444--444444--444444--|
D|--xxxxxx--xxxxxx--xxxxxx--xxxxxx--xxxxxx--xxxxxx--555555--555555--|
A|--333333--333333--555555--555555--777777--777777------------------|
E|------------------------------------------------------------------|


============
0:49-1:05
============
Guitar 1
e|----------------------------------------------------------------------------------|
B|---3-5-000-3-5-7-5-3---5-7-888-5-7-8-7-5--7-8-333-7-8-10-8-7--7-8-333-7-8-10-8-7--|
G|----------------------------------------------------------------------------------|x2 
D|----------------------------------------------------------------------------------|
A|----------------------------------------------------------------------------------|
E|----------------------------------------------------------------------------------|

Guitar 2
e|--------------------------------------------------------|
B|--------------------------------------------------------|
G|--444444444444-444444444444-444444444444-444444444444---|
D|--xxxxxxxxxxxx-xxxxxxxxxxxx-xxxxxxxxxxxx-555555555555---|x2
A|--333333333333-555555555555-777777777777----------------|
E|--------------------------------------------------------|


============
1:05-1:12
============

Guitar 1
e|----\3p2--\3p2--\3p2----------|
B|------------------------------|
G|---------------------444444---|
D|--2~----2~----2~-----xxxxxx---|
A|--2~----2~----2~-----333333---|
E|--0~----0~----0~--------------|

Guitar 2
e|------------------------------|
B|------------------------------|
G|---------------------444444---|
D|--2~~~~~2~~~~~2~~~~~~xxxxxx---|
A|--2~~~~~2~~~~~2~~~~~~333333---|
E|--0~~~~~0~~~~~0~~~~~~---------|


Lyrics:

she took the whip,
tried to give him a cut across the face,
she spat like a wildcat...
her eyes were icy blue as he fell to the ground,
eyes filled with ice, she spat like a wildcat.
get going cowboy... to those horses you think so much of,
get going cowboy... to those goddman horses you think so much of.
get going cowboy.
get going, get going, get going, get going, get going, get going....




http://www.missinglink.net.au/search.php?item=Love+Like...+Electrocution
Tap to rate this tab
 
# A B C D E F G H I J K L M N O P Q R S T U V W X Y Z