Song name
# A B C D E F G H I J K L M N O P Q R S T U V W X Y Z

Love Me Butch - Hollywood Holiday tab

Song:Hollywood Holliday
Album:This is the New Pop
Artist:Love Me Butch
Date Tabbed:December,2006
Guitar Tabber:Ryan Manongdo/16/m/Montalban Rizal,Philippines
              no_falter0x@yahoo.com(MySpace,Friendster&YM)

For your questions or suggestions,just post in friendster comment,PM or mail me.

Gtr.Legends
/ - slide
p - pull-off
h - hammer-on
~ - let it ring
. - palm muting
x - dead string

Gtr.Tuning:Drop D

Intro:
Gtr.1          Gtr.2
e|-----------  -1010101010101010---|
B|-----------  --9-9-9-9-9-9-9-9---|
G|-----------  --------------------|
D|-99999999--  --------------------|
A|-99999999--  --------------------|
D|-99999999--  --------------------|

Verse:
Gtr.1:
e|---------------------------------|
B|---------------------------------|
G|---------------------------------| 4x
D|-999999--444444--555555/777777---|
A|-999999--444444--555555/777777---|
D|-999999--444444--555555/777777---|

Gtr.2:Listen to the song well to get the timing....
e|-10-1010-1010--12121212/14141414141414-17--1010-9-10-9-10-9-10p9--9-10-9-10-9-10p9-----------------|
B|--9--9-9--9-9--------------------------------------------------------------------------------------|
G|-----------------------------------------------------------------------------------666-444/99999---|
D|---------------------------------------------------------------------------------------------------|
A|---------------------------------------------------------------------------------------------------|
D|---------------------------------------------------------------------------------------------------|

Chorus:
e|--------------------------------------------------------------------
B|--------------------------------------------------------------------
G|--------------------------------------------------------------------
D|-1h22222/555555---99-99-99-99-10--99-99-99-99-10--99-99-99-99-10----
A|-1h22222/555555---99-99-99-99-10--99-99-99-99-10--99-99-99-99-10----
D|-1h22222/555555---99-99-99-99-10--99-99-99-99-10--99-99-99-99-10----
                    .. .. .. ..  .  .. .. .. ..  .  .. .. .. ..  .

--------------------------------------------|
--------------------------------------------|
--------------------------------------------| 
-99-99-99-99-10--0h222222/5555555--999999---|
-99-99-99-99-10--0h222222/5555555--999999---|
-99-99-99-99-10--0h222222/5555555--999999---|
 .. .. .. ..  .    


Repeat Verse 2x:

Repeat Chorus:

Bridge prt.1:
Gtr.1
e|--------------------|
B|--------------------|
G|--------------------| 4x
D|-9~--11~--12~--7~---|
A|-9~--11~--12~--7~---|
D|-9~--11~--12~--7~---|

Gtr.2
e|---------------------|
B|---3---3----3----3---|
G|---------------------| 4x
D|----------0----------|
A|-2---4---------0-----|
D|---------------------|

Bridge prt.2:
Gtr.1
e|-----------------------------      ----------------------------|
B|-----------------------------      ----------------------------|
G|----------------------------- 8x   ----------------------------|
D|-9999-111111-12121212-7777--- Then -----------4h555555/77777---|
A|-9999-111111-12121212-7777---      -----------4h555555/77777---|
D|-9999-111111-12121212-7777---      -pickslide-4h555555/77777---|

Gtr.2:
e|------12------12------12-12h14-12-      ------------------------------------
B|-1010----1010----1010------------- 4x   ------------------------------------
G|---------------------------------- Then --11111111-13131313-14141414-9999--- 2x
D|----------------------------------      ---x-x-x-x-xxxxxxxx-xxxxxxxx-xxxx--- Then
A|----------------------------------      ---9-9-9-9-11111111-12121212-7777---
D|----------------------------------      ---9-9-9-9-11111111-12121212-7777---

-14b14b14b14b14b14b14b14b---14h15-15/17--14h15-15/17--14h15-15/17--14h15-15/17--14h15-15/17---|
----------------------------------------------------------------------------------------------|
----------------------------------------------------------------------------------------------|
----------------------------------------------------------------------------------------------|
----------------------------------------------------------------------------------------------|
----------------------------------------------------------------------------------------------|

e|-------------------------------------------------------------------|
B|-------------------------------------------------------------------|
G|-------------------------------------------------------------------|
D|-99-99-99-99-10--99-99-99-99-10--1h222222/555555--1h22222/555555---|
A|-99-99-99-99-10--99-99-99-99-10--1h222222/555555--1h22222/555555---|
D|-99-99-99-99-10--99-99-99-99-10--1h222222/555555--1h22222/555555---|
   .. .. .. ..  .  .. .. .. ..  .    

Outro:
e|------------------------|
B|------------------------|
G|-1111-1111--11111111~---|
D|--9-9--9-9---9-9-9-9~---|
A|--9-9--9-9---9-9-9-9~---|
D|--9-9--9-9---9-9-9-9~---|
    . .  . .   

End...


Hollywood Holiday Lyrics:

Verse 1:
Catching up with the silence, 
oh the silence of remembrance 
Stop calling upon their names, 
not to wait for their call 
And it's all for good, 
it's all for good 
Skipping all the pages, 
truth lies in this vacation 
Went through a lot of trouble, 
just to get through the rubble 
Apart from you, to be apart from you 
I'd paint around my house for good 
I'd stay with all my heart not for you 

Chorus 1:
Can't find it, once we leave it, 
leave it all for what... 
Well I can't stay forever, 
all at different phases 
Oh what am I thinking? 
This situation brought it down for what 
What do I get from that? 
There must be a reason 

Verse 2:
I could use some of your pillows, 
I'm lying by the beach 
With your shadow out of reach, 
shadow out of reach 
Hey it's all for good, 
to be apart from you 
I'd break all the rules not for you 
Can't find it, 
once we leave it all for what... 

Repeat Chorus: 

Bridge:
Would you buy, would you save 
for a Hollywood Holiday? 
Satisfying as you say 
it's a Hollywood Holiday 
Hey I can't stay forever, 
all day praying to be here 
I cannot stay forever... 

Hate to be here, 
trying to steal 
your precious light for a second... 
Love to hate you, drive through, 
beneath you, scared to leave 
you all I can 
Tap to rate this tab
 
# A B C D E F G H I J K L M N O P Q R S T U V W X Y Z