Song name
# A B C D E F G H I J K L M N O P Q R S T U V W X Y Z

Love She Wrote - Bling Bling Baby tab

Note: In the album version, there are two guitars.
This is for the live version, which only has one guitar.
It is also the rythem guitar for the album version however, and still sounds good 
with the song.

Drop D Tuning

Intro

e|---------------------------------------------------|
B|---------------------------------------------------|
G|-7777777777777777-11111111111111111111111111111111-|
D|-7777777777777777-11111111111111111111111111111111-|
A|-5555555555555555-9-9-9-9-9-9-9-9-9-9-9-9-9-9-9-9--|
D|---------------------------------------------------|

Intro pt.2 (x2)

|------------------------------------------------------------------------------------------------|
|------------------------------------------------------------------------------------------------|
|-14-14-141414-14-12-11-12--14-14-141414-14-12-11-7--11-11-111111-12-11-9-7--12-12-12-11-9-11-9-7|
|-14-14-141414-14-12-11-12--14-14-141414-14-12-11-7--11-11-111111-12-11-9-7--12-12-12-11-9-9--7-7|
|-12-12-121212-12-10-9--10--12-12-121212-12-10-9--9--9--9--9-9-9--10-9--7-5--10-10-10-9--7-9--7-5|
|------------------------------------------------------------------------------------------------|

Verse Pt.1 (She moves slowly...)

|----------------------|
|----------------------|
|-7~~~~----------------|
|-7~~~~7~~~~9~~~~5~~~~-|
|-5~~~~7~~~~9~~~~5~~~~-|
|------7~~~~9~~~~5~~~~-|


Verse Pt. 2 (She whispers softly...)

|---------------------------------------------------------------------|
|---------------------------------------------------------------------|
|-7777777777777777----------------------------------------------------|
|-7777777777777777-7777777777777777-9999999999999999-5555555555555555-|
|-5555555555555555-7777777777777777-9999999999999999-5555555555555555-|
|------------------7777777777777777-9999999999999999-5555555555555555-|
p.m...................................................................


Pre Chorus (Shake it up baby...)

|---------------------------------------|
|---------------------------------------|
|---------------------------------------|
|-222----55555555555555-222----55555555-|
|-222----55555555555555-222----55555555-|
|-222----55555555555555-222----55555555-|


Chorus (I have to go...)

|---------------------------000000000000--------------|
|---------------------------333333333333--------------|
|-444444444444--------------222222222222-222222222222-|
|-444444444444-555555555555-000000000000-222222222222-|
|-222222222222-555555555555--------------000000000000-|
|--------------555555555555---------------------------|

|---------------------------000000-----------|
|---------------------------333333-----------|
|-444444444444--------------222222-222222----|
|-444444444444-555555555555-000000-222222-5~-|
|-222222222222-555555555555--------000000-5~-|
|--------------555555555555---------------5~-|


Repeat Intro Pt 2

Repeat Verse Pt 2 (Hold her tightly...)


Verse Pt. 3 (She moves closer...)

|-----------------------------------------------------------------|
|-----------------------------------------------------------------|
|-7-7-7-7-7-7-7-7-------------------------------------------------|
|-7-7-7-7-7-7-7-7-7-7-7-7-7-7-7-7-9-9-9-9-9-9-9-9-5-5-5-5-5-5-5-5-|
|-5-5-5-5-5-5-5-5-7-7-7-7-7-7-7-7-9-9-9-9-9-9-9-9-5-5-5-5-5-5-5-5-|
|-----------------7-7-7-7-7-7-7-7-9-9-9-9-9-9-9-9-5-5-5-5-5-5-5-5-|


Repeat Pre Chorus

Repeat Chorus


Bridge (Give it up girl...)

|-0~~~~-----0~~~~-----0~~~~-----0~~~~--|
|-3~~~~-----3~~~~-----3~~~~-----3~~~~--|
|-2~~~~-----2~~~~-----2~~~~-----2~~~~--|
|-0~~~~5~~~~0~~~~5~~~~0~~~~5~~~~0~~~~5-|
|------5~~~~-----5~~~~-----5~~~~-----5-|
|------5~~~~-----5~~~~-----5~~~~-----5-|


Repeat Chorus


End with

|-0~~-------|
|-3~~-------|
|-2~~2~~----|
|-0~~2~~5~~-|
|----0~~5~~-|
|-------5~~-|


There you go guys. And while your at it playing this awesome song make sure to spread 
word about these guys
-Mike
Tap to rate this tab
 
# A B C D E F G H I J K L M N O P Q R S T U V W X Y Z