Song name
# A B C D E F G H I J K L M N O P Q R S T U V W X Y Z

Love - Maybe The People tab

-----------------------------------------------------------------------------
  MAYBE THE PEOPLE WOULD BE THE TIMES OR BETWEEN CLARK AND HILLDALE - LOVE
-----------------------------------------------------------------------------
                            Forever Changes (1967)


TUNING: Drop D (DADGBe)


LEGEND:

h = Hammer-on.
p = Pull-off.
( ) = Ghost note. This is a note barely heard on the studio recording.
/ = Slide up.
~ = Let note ring.

INTRO:

    Am
e|--0-0---0---0-0---0---0-0---0---0-0---0-0-0-------------------------------|
B|--1-1---1---1-1---1---1-1---1---1-1---1-1-1-------------------------------|
G|--2-2--(0)--2-2--(0)--2-2--(0)--2-2---0-2-0-------------------------------|
D|--2-2---2---2-2---2---2-2---2---2-2---2-2-2-------------------------------|
A|--0-0---0---0-0---0---0-0---0---0-0---0-0-0-------------------------------|
D|--------------------------------------------------------------------------|



VERSE:

   Cmaj7/E     Fmaj7        G
e|--0-0---------0-0---------3-3---------------------------------------------|
B|--0-0---------1-1---------0-0---------------------------------------------|
G|--0-0---------2-2---------0-0---------------------------------------------|
D|--2-2---------3-3---------0-0---------------------------------------------|
A|--3-3---------------------2-2------0--2--3--2--0-2-3----------------------|
D|--------------------------------------------------------------------------|

   Cmaj7/E     Fmaj7        G
e|--0-0---------0-0---------3-3---------------------------------------------|
B|--0-0---------1-1---------0-0---------------------------------------------|
G|--0-0---------2-2---------0-0---------------------------------------------|
D|--2-2---------3-3---------0-0---------------------------------------------|
A|--3-3---------------------2-2------0--2--3--2--0-2-0----------------------|
D|--------------------------------------------------------------------------|

    Em          C           G
e|--0-0---------0-0---------3-3---------------------------------------------|
B|--0-0---------1-1---------0-0---------------------------------------------|
G|--0-0---------0-0---------0-0---------------------------------------------|
D|--2-2---------2-2---------0-0---------------------------------------------|
A|--2-2---------3-3---------2-2---------------------------------------------|
D|-----------------------------------5--0--5--0-----------------------------|

    Em          C           Am
e|--0-0---------0-0---------0-0---0---0-0---0---0-0---0---0-0---0-0-0-------|
B|--0-0---------1-1---------1-1---1---1-1---1---1-1---1---1-1---1-1-1-------|
G|--0-0---------0-0---------2-2--(0)--2-2--(0)--2-2--(0)--2-2---0-2-0-------|
D|--2-2---------2-2---------2-2---2---2-2---2---2-2---2---2-2---2-2-2-------|
A|--2-2---------3-3---------0-0---0---0-0---0---0-0---0---0-0---0-0-0-------|
D|--------------------------------------------------------------------------|


Repeat the above for each verse and solo/outro solo.


SOLO:


e|---12-12-12--10-----------------------------------------------------------|
B|-----------------13-12-13-12h13p12--(10)--8-------------------------------|
G|---------------------------------------------9----------------------------|
D|--------------------------------------------------------------------------|
A|--------------------------------------------------------------------------|
D|--------------------------------------------------------------------------|

e|--12-12-12---10-------------------10-8------------------------------------|
B|-----------------13-12-13-12-10---------12--------------------------------|
G|--------------------------------------------------------------------------|
D|--------------------------------------------------------------------------|
A|--------------------------------------------------------------------------|
D|--------------------------------------------------------------------------|

e|--------------------------------------------------------------------------|
B|--------------8--8h10-10-8~-----------------------------------------------|
G|--8-9---8-9-----------------8-9---8-9-9-9-9-9-----------------------------|
D|--------------------------------------------------------------------------|
A|--------------------------------------------------------------------------|
D|--------------------------------------------------------------------------|

e|---------------8------8/12--12-10-----------------------------------------|
B|--8/10--10-12-----10---------------13--12h13p12---------------------------|
G|--------------------------------------------------------------------------|
D|--------------------------------------------------------------------------|
A|--------------------------------------------------------------------------|
D|--------------------------------------------------------------------------|


Repeat verse chords for horn break. The note of the horn is at the high e, 12th fret. 
Fun to keep plucking with it.

Repeat verse chords for verse four and five.


OUTRO SOLO:


e|--12-12-12-12-10----------------------------------------------------------|
B|------------------13-12-13-12-10------------------------------------------|
G|----------------------------------14-12-----------------------------------|
D|--------------------------------------------------------------------------|
A|--------------------------------------------------------------------------|
D|--------------------------------------------------------------------------|

e|-----12----10---------------------------10-10-----------------------------|
B|------------------13------12-----13-----------13-15-12h13p12--8-----------|
G|--12----12----12------12-----12-----12---------------------------9--------|
D|--------------------------------------------------------------------------|
A|--------------------------------------------------------------------------|
D|--------------------------------------------------------------------------|

e|--------------------------------------------------------------------------|
B|----------------8-8/10-10-8-----------------------------------------------|
G|--8-9--9--9-------------------8-9--8-9-9-9-9------------------------------|
D|--------------------------------------------------------------------------|
A|--------------------------------------------------------------------------|
D|--------------------------------------------------------------------------|

e|--------------------8-7-----8/12---12---10--------------------------------|
B|--8-8/10--10-------------8---------------------13------12--12h13p12-------|
G|-------------------------------------12----12------12---------------------|
D|--------------------------------------------------------------------------|
A|--------------------------------------------------------------------------|
D|--------------------------------------------------------------------------|

e|--------------------------------------------------------------------------|
B|--10-8-------8-8-10--12-12--8---12-13--15--12--12h13p12~------------------|
G|--------9-9---------------------------------------------------------------|
D|--------------------------------------------------------------------------|
A|--------------------------------------------------------------------------|
D|--------------------------------------------------------------------------|


-----------------------------------------------------------------------------

And that's it. Keep in mind the flamenco style of the song when it comes to the rhythm 
of the verses. Anyway, this is the most in depth I've ever gone with a tab so if there 
are any mistakes feel free to leave a comment. Wonderful album, wonderful song. Have fun.
Tap to rate this tab
# A B C D E F G H I J K L M N O P Q R S T U V W X Y Z