Song name
# A B C D E F G H I J K L M N O P Q R S T U V W X Y Z

Lovedrug - Castling tab

-------------------------------------------------------------------------------
			     Castling - Lovedrug
-------------------------------------------------------------------------------
Tabbed by:boogatimbooga
Email:boogatimbooga@yahoo.com

i saw a video on youtube in which they did an acoustic set of the song so it may be a 
different when played on electric, this is my first posted tab but im about 98% sure this 
all correct

video link: http://www.youtube.com/watch?v=teBgE1HIPDk&NR=1

Tuning:Eb standard
eb
Bb
Gb
Db
Ab
Eb

intro
gtr 1
eb|---------------------------------------------------------------------------|
Bb|---------------------------------------------------------------------------|
Gb|-------0--------0--------0-------0-----------------------------------------|
Db|-----0---0----0---0----0---0---0---0---------------------------------------|
Ab|--10-------10--------9-------9---------------------------------------------|
Eb|---------------------------------------------------------------------------|

gtr 1
eb|-----------------------------------------------------2----3----------------|
Bb|--8----8------8-----8--------------------------------3----3----------------|
Gb|--7----7------7-----7----------4-----5-----7---------2---------------------|
Db|--9----7------9-----7----------5-----7-----9-------------------------------|
Ab|----------------------------------------------------------3----------------|
Eb|---------------------------------------------------------------------------|
     8x   8x     8x    8x         4x    4x    8x

gtr 2
eb|--------------------------------------3----3--------------------------------|
Bb|--------------------------------------2----3--------------------------------|
Gb|--------------------------------------3-------------------------------------|
Db|--5---5--------5---5-/7-------9-7-5-----------------------------------------|
Ab|--2---3---5----2---3/-5---5---7-5-3--------3--------------------------------|
Eb|----------3---------------3-------------------------------------------------|

verse- u can figure out rhythm its not hard
eb|---------------------------------------------------------------------------|
Bb|---8-----7-----3-------------5---------------------------------------------|
Gb|---0-----0-----0----4---7----0---------------------------------------------|2x
Db|---0-----0-----0----0---0----0---------------------------------------------|
Ab|--10-----7-----3----0--------7---------------------------------------------|
Eb|--------------------3---8--------------------------------------------------|

pre chorus- oh sister/brother its alright...
gtr 1
eb|---------------------------------------------------------------------------|
Bb|---------------------------------------------------------------------------|
Gb|---------------------------------------------------------------------------|
Db|--5----5-5-----------------------------------------------------------------|
Ab|--2----3-3-----------------------------------------------------------------|
Eb|---------------------------------------------------------------------------|

chorus
gtr 1- i think on the cd this part may be picked but im not positive
eb|------------------------------------------3--3-----------------------------|
Bb|--------------------8--7------------------2--3-----------------------------|
Gb|--4--7--12-11--4-5--0--0--4--7--12-11-----3--------------------------------|
Db|--5--7--12-12--5-5--0--0--5--7--12-12--------------------------------------|
Ab|--------------------7--5---------------------3-----------------------------|
Eb|---------------------------------------------------------------------------|
gtr 2
eb|------------------------------------------3--3-----------------------------|
Bb|--3--3--3--8---3--3--8--5--3--3--3--8-----2--3-----------------------------|
Gb|-----------9---------9--0-----------9-----3--------------------------------|
Db|-----------9---------9--7-----------9--------------------------------------|
Ab|-----2--3--7---2--3--7--5------2--3-7--------3-----------------------------|
Eb|--3------------------------3-----------------------------------------------|

break-
gtr 2
eb|---------------------------------------------------------------------------|
Bb|---------------------------------------------------------0--------0--------|
Gb|------0--------0-------0-------0-------0-------0-------0---0----0---0------|
Db|----0---0----0---0---0---0---0---0---0---0---0---0-------------------------|
Ab|--10------10-------9-------9-------7-------7-------14--------14------------|
Eb|---------------------------------------------------------------------------|

gtr 1
eb|---------------------------------------------------------------------------|
Bb|---------------------------------------------------------------------------|
Gb|------0--------0-------0-------0-------0-------0-------0-------0-----------|
Db|----0---0----0---0---0---0---0---0---0---0---0---0---0---0---0--0----------|
Ab|--10------10-------9-------9-------7-------7-------3-------3---------------|
Eb|---------------------------------------------------------------------------|

bridge- everything....
gtr 1
eb|------------------------------------3--3-----------------------------------|
Bb|--8----8----8-----8-----------------2--3-----------------------------------|
Gb|--7----7----7-----7----4--5--7------3--------------------------------------|
Db|--9----7----9-----7----5--7--9---------------------------------------------|
Ab|---------------------------------------3-----------------------------------|
Eb|---------------------------------------------------------------------------|

gtr 2
eb|------------------------------------3--3-----------------------------------|
Bb|--3-3--3-----3-3/5-3----------------2--3-----------------------------------|
Gb|------------------------------------3--------------------------------------|
Db|------------------------9--7--5--------------------------------------------|
Ab|--2-3--------2-3/5------7--5--3--------3-----------------------------------|
Eb|-------3-----------3-------------------------------------------------------|

2nd time both guitars
eb|--------------------------------------3----3-------------------------------|
Bb|--------------------------------------2----3-------------------------------|
Gb|--------------------------------------3------------------------------------|
Db|--5---5--------5---5-/7-------9-7-5----------------------------------------|
Ab|--2---3---5----2---3/-5---5---7-5-3--------3-------------------------------|
Eb|----------3---------------3------------------------------------------------|

| /  slide up
| \  slide down
| h  hammer-on
| p  pull-off
| ~  vibrato
| +  harmonic
| x  Mute note
===============================================================================
Tap to rate this tab
 
# A B C D E F G H I J K L M N O P Q R S T U V W X Y Z