Song name
# A B C D E F G H I J K L M N O P Q R S T U V W X Y Z

Lovedrug - Goodbye Bluefly tab

-------------------------------------------------------------------------------
			   GOODBYE BLUEFLY - Lovedrug
-------------------------------------------------------------------------------
Tabbed by: Matt
Email: mshahabian @ gmail.com

Tuning: Standard - CAPO 1
Notes: (all of the chords are arpeggios, also, for the (relative) F#m chord, don't play
high F#).  I've basically split it up into the main sections because i'm too lazy to tab
whole thing. The second time through section two continues back to the exclamation 
and you need to pluck the low E string with your thumb and the high e string with a
for the same notes (the 3, 2, 0, 0, 2, 3, 2).  Just play it by ear and enjoy.


e|-----3----2------3-----2-------!---------------------------------0---------|
B|-------2--3---------2--3--3/5--!--3------3-----3-----3-----3-------3---3---|
G|----------2------------2-------!----0------0-----0-----0-----0-----------0-|
D|---0------0---0--------0-------!-------------------------------------------|
A|-------------------------------!-------------------------------------------|
E|-------------------------------3-------2-----0-----0-----2-----3-----2-----|

e|-----------------------------------x---------------------------------------|
B|-----3--------------------3--------2---------------------------------------|
G|-------0----------------3----3-----3---------------------------------------|
D|---------0-----------2----------2--4---------------------------------------|
A|-----------------------------------4---------------------------------------|
E|---0--------0--1--2----------------2---------------------------------------|

e|-----------0-----------------0-----------------2-----------------2---------|
B|--------3-----3-----------3----3------------3-----3-----------1----1-------|
G|-----3-----------3-----3----------3------2-----------2-----2---------2-----|
D|--------------------------------------0-----------------0--------------0---|
A|---------------------------------------------------------------------------|
E|---3----------------3------------------------------------------------------|

e|-----------0-----------------0----------------2-----------------2--3--5--3-|
B|--------3-----3-----------3----3-----------3-----3-----------1-------------|
G|-----3-----------3-----3----------3-----2-----------2-----2----------------|
D|-------------------------------------0-----------------0-------------------|
A|---------------------------------------------------------------------------|
E|---3----------------3------------------------------------------------------|


| /  slide up
| \  slide down
| h  hammer-on
| p  pull-off
| ~  vibrato
| +  harmonic
| x  Mute note
===============================================================================
Tap to rate this tab
# A B C D E F G H I J K L M N O P Q R S T U V W X Y Z