Song name
# A B C D E F G H I J K L M N O P Q R S T U V W X Y Z

Lovehammers - Casualty tab

Tabber: isuk@guitar
Song: Casualty
Artist: Marty Casey and the Lovehammers
Album: Marty Casey and the Lovehammers

My guitar teacher actually figured this out. I am just putting it up on UG for him. 
All of the credit goes to him.

guitar 1: EADGBe 'standard'
guitar 2: EADGBe 'standard'

verse:
 guitar 1
|-------------------------------|
|--6-6-6-6--5-5--3-3-3-3--5-5---|
|--7-7-7-7--5-5--3-3-3-3--5-5---|
|--7-7-7-7--5-5--3-3-3-3--5-5---|
|--5-5-5-5----------------------|
|-------------------------------| x6

prechorus
 guitar 1
|---------------------|
|---------------------|
|----------5-5-5-5----|
|-5-5-5-5--5-5-5-5----|
|-5-5-5-5--3-3-3-3----|
|-3-3-3-3-------------| x2


chorus

 guitar 1
|-----------------------------------|
|-----------------------------------|
|-----------------------------------|
|-7-7---5-5--3-3-3-3-3-3-3-3-3------|
|-5-5---3-3--1-1-1-1-1-1-1-1-1------|
|-5-5---3-3--1-1-1-1-1-1-1-1-1------|
|                
|guitar 2        
|----------------------------------------|
|----------------------------------------|
|------------3---5---7---3---------------|
|----------------------------------------|
|------------1---3---5---5---------------|
|----------------------------------------|


 guitar 1
|---------------------------------|
|---------------------------------|
|---------------------------------|
|-7-7---5-5--3-3-3-3--5-5-5-5-----|
|-5-5---3-3--3-3-3-3--5-5-5-5-----|
|-5-5---3-3--1-1-1-1--3-3-3-3-----|
|
|guitar 2
|---------------------------------|
|---------------------------------|
|---------------------------------|
|---------------------------------|
|---------------------------------|
|---------------------------------|

 guitar 1
|----------------------------------------|
|----------------------------------------|
|----------------------------------------|
|-7-7-7-7--5-5-5-5--3-3-3-3-3-3-3-3------|
|-5-5-5-5--3-3-3-3--1-1-1-1-1-1-1-1------|
|-5-5-5-5--3-3-3-3--1-1-1-1-1-1-1-1------|
|
|guitar 2
|----------------------------------------|
|----------------------------------------|
|-7-7-7-7--9-9-9-9--1010101010101010-----|those are 10's
|----------------------------------------|
|-5-5-5-5--7-7-7-7--8-8-8-8-8-8-8-8------|
|----------------------------------------|

 guitar 1
|------------------------------|
|------------------------------|
|------------------------------|
|-5-5-5-5-5-5-5-5--3-3-3-3-----|
|-3-3-3-3-3-3-3-3--1-1-1-1-----|
|-3-3-3-3-3-3-3-3--1-1-1-1-----|
|
|guitar 2
|------------------------------|
|------------------------------|
|-5-5-5-5-5-5-5-5--3-3-3-3-----|
|------------------------------|
|-3-3-3-3-3-3-3-3--1-1-1-1-----|
|------------------------------|

verse:
 guitar 1
|-------------------------------|
|--6-6-6-6--5-5--3-3-3-3--5-5---|
|--7-7-7-7--5-5--3-3-3-3--5-5---|
|--7-7-7-7--5-5--3-3-3-3--5-5---|
|--5-5-5-5----------------------|
|-------------------------------|
|
|guitar 2
|-------------------------------|
|-----------8~---10-6~----------|
|-7-----------------------------|
|-------------------------------|
|-------------------------------|
|-------------------------------| x2

 guitar 1
|-------------------------------|
|--6-6-6-6--5-5--3-3-3-3--5-5---|
|--7-7-7-7--5-5--3-3-3-3--5-5---|
|--7-7-7-7--5-5--3-3-3-3--5-5---|
|--5-5-5-5----------------------|
|-------------------------------| x4 

chorus

 guitar 1
|-----------------------------------|
|-----------------------------------|
|-----------------------------------|
|-7-7---5-5--3-3-3-3-3-3-3-3-3------|
|-5-5---3-3--1-1-1-1-1-1-1-1-1------|
|-5-5---3-3--1-1-1-1-1-1-1-1-1------|
|                
|guitar 2        
|----------------------------------------|
|----------------------------------------|
|------------3---5---7---3---------------|
|----------------------------------------|
|------------1---3---5---5---------------|
|----------------------------------------|

 guitar 1
|---------------------------------|
|---------------------------------|
|---------------------------------|
|-7-7---5-5--3-3-3-3--5-5-5-5-----|
|-5-5---3-3--3-3-3-3--5-5-5-5-----|
|-5-5---3-3--1-1-1-1--3-3-3-3-----|
|
|guitar 2
|---------------------------------|
|---------------------------------|
|---------------------------------|
|---------------------------------|
|---------------------------------|
|---------------------------------|

guitar 1
|----------------------------------------|
|----------------------------------------|
|----------------------------------------|
|-7-7-7-7--5-5-5-5--3-3-3-3-3-3-3-3------|
|-5-5-5-5--3-3-3-3--1-1-1-1-1-1-1-1------|
|-5-5-5-5--3-3-3-3--1-1-1-1-1-1-1-1------|
|
|guitar 2
|----------------------------------------|
|----------------------------------------|
|-7-7-7-7--9-9-9-9--1010101010101010-----|
|----------------------------------------|
|-5-5-5-5--7-7-7-7--8-8-8-8-8-8-8-8------|
|----------------------------------------|

guitar 1
|------------------------------|
|------------------------------|
|------------------------------|
|-5-5-5-5-5-5-5-5--3-3-3-3-----|
|-3-3-3-3-3-3-3-3--1-1-1-1-----|
|-3-3-3-3-3-3-3-3--1-1-1-1-----|
|
|guitar 2
|------------------------------|
|------------------------------|
|-5-5-5-5-5-5-5-5--3-3-3-3-----|
|------------------------------|
|-3-3-3-3-3-3-3-3--1-1-1-1-----|
|------------------------------|

Bridge:
 guitar 1
|-------------------------------------|
|-------------------------------------|
|-5-5-5-5-5-5-5-5--3-3-3-3-3-3-3-3----|
|-5-5-5-5-5-5-5-5--3-3-3-3-3-3-3-3----|
|-3-3-3-3-3-3-3-3--1-1-1-1-1-1-1-1----|
|-------------------------------------|
|
|guitar 2
|-------8----------------6------------|
|---5-8---8-5--------3-6---6-3--------|
|-5-----------5----3-----------3------|
|-------------------------------------|
|-------------------------------------|
|-------------------------------------|

 guitar 1
|-------------------------------------|
|-------------------------------------|
|-------------------------------------|
|-7-7-7-7-7-7-7----5-5-5-5-5-5-5-5----|
|-7-7-7-7-7-7-7----5-5-5-5-5-5-5-5----|
|-5-5-5-5-5-5-5----3-3-3-3-3-3-3-3----|
|
|guitar 2
|-----5-8-5--------------8------------|
|---6-------6--------5-8---8----------|
|-7-----------7----5---------5--------|
|------------------------------5------|
|-------------------------------------|
|-------------------------------------|

 guitar 1
|-------------------------------------|
|-------------------------------------|
|-5-5-5-5-5-5-5-5--3-3-3-3-3-3-3-3----|
|-5-5-5-5-5-5-5-5--3-3-3-3-3-3-3-3----|
|-3-3-3-3-3-3-3-3--1-1-1-1-1-1-1-1----|
|-------------------------------------|
|
|guitar 2
|-------8----------------6------------|
|---5-8---8-5--------3-6---6-3--------|
|-5-----------5----3-----------3------|
|-------------------------------------|
|-------------------------------------|
|-------------------------------------|

 guitar 1
|-------------------------------------|
|-------------------------------------|
|-------------------------------------|
|-7-7-7-7-7-7-7----5-5-5-5-5-5-5-5----|
|-7-7-7-7-7-7-7----5-5-5-5-5-5-5-5----|
|-5-5-5-5-5-5-5----3-3-3-3-3-3-3-3----|
|
|guitar 2
|-----5-8-5--------------8------------|
|---6-------6--------5-8---8----------|
|-7-----------7----5---------5--------|
|------------------------------5------|
|-------------------------------------|
|-------------------------------------|

 guitar 1
|-------------------------------------|
|-------------------------------------|
|-5-5-5-5-5-5-5-5--3-3-3-3-3-3-3-3----|
|-5-5-5-5-5-5-5-5--3-3-3-3-3-3-3-3----|
|-3-3-3-3-3-3-3-3--1-1-1-1-1-1-1-1----|
|-------------------------------------|
|
|guitar 2
|-------8----------------6------------|
|---5-8---8-5--------3-6---6-3--------|
|-5-----------5----3-----------3------|
|-------------------------------------|
|-------------------------------------|
|-------------------------------------|

 guitar 1
|-------------------------------------|
|-------------------------------------|
|-------------------------------------|
|-3-3-3-3-3-3-3-3--5-5-5-5-5-5-5-5----|
|-3-3-3-3-3-3-3-3--5-5-5-5-5-5-5-5----|
|-1-1-1-1-1-1-1-1--3-3-3-3-3-3-3-3----|

 guitar 1
|-----------------------|
|-6-------5-------3-----|
|-7-------5-------3-----|
|-7-------5-------3-----|
|-5-------3-------1-----|
|-----------------------| x2

chorus

 guitar 1
|-----------------------------------|
|-----------------------------------|
|-----------------------------------|
|-7-7---5-5--3-3-3-3-3-3-3-3-3------|
|-5-5---3-3--1-1-1-1-1-1-1-1-1------|
|-5-5---3-3--1-1-1-1-1-1-1-1-1------|
|                
|guitar 2        
|----------------------------------------|
|----------------------------------------|
|------------3---5---7---3---------------|
|----------------------------------------|
|------------1---3---5---5---------------|
|----------------------------------------|

 guitar 1
|------------------------------------|
|------------------------------------|
|------------------------------------|
|-77-77--55-55--3-3-3-3--5-5-5-5-----|
|-55-55--33-33--3-3-3-3--5-5-5-5-----|
|-55-55--33-33--1-1-1-1--3-3-3-3-----|
|
|guitar 2
|------------------------------------|
|------------------------------------|
|------------------------------------|
|------------------------------------|
|------------------------------------|
|------------------------------------|

guitar 1
|----------------------------------------|
|----------------------------------------|
|----------------------------------------|
|-7-7-7-7--5-5-5-5--3-3-3-3-3-3-3-3------|
|-5-5-5-5--3-3-3-3--1-1-1-1-1-1-1-1------|
|-5-5-5-5--3-3-3-3--1-1-1-1-1-1-1-1------|
|
|guitar 2
|----------------------------------------|
|----------------------------------------|
|-7-7-7-7--9-9-9-9--1010101010101010-----|
|----------------------------------------|
|-5-5-5-5--7-7-7-7--8-8-8-8-8-8-8-8------|
|----------------------------------------|

guitar 1
|----------------------------------------|
|----------------------------------------|
|----------------------------------------|
|-7-7-7-7--5-5-5-5--3-3-3-3--5-5-5-5------|
|-5-5-5-5--3-3-3-3--3-3-3-3--5-5-5-5------|
|-5-5-5-5--3-3-3-3--1-1-1-1--3-3-3-3------|
|
|guitar 2
|----------------------------------------|
|----------------------------------------|
|-7-7-7-7--9-9-9-9--10101010-12121212----|
|----------------------------------------|
|-5-5-5-5--7-7-7-7--8-8-8-8--10101010----|
|----------------------------------------|

guitar 1
|----------------------------------------|
|----------------------------------------|
|----------------------------------------|
|-7-7-7-7--5-5-5-5--3-3-3-3-3-3-3-3------|
|-5-5-5-5--3-3-3-3--1-1-1-1-1-1-1-1------|
|-5-5-5-5--3-3-3-3--1-1-1-1-1-1-1-1------|
|
|guitar 2
|----------------------------------------|
|----------------------------------------|
|-7-7-7-7--9-9-9-9--1010101010101010-----|
|----------------------------------------|
|-5-5-5-5--7-7-7-7--8-8-8-8-8-8-8-8------|
|----------------------------------------|

guitar 1
|------------------------------|
|------------------------------|
|------------------------------|
|-5-5-5-5-5-5-5-5--3-3-3-3-----|
|-3-3-3-3-3-3-3-3--1-1-1-1-----|
|-3-3-3-3-3-3-3-3--1-1-1-1-----|
|
|guitar 2
|------------------------------|
|------------------------------|
|-5-5-5-5-5-5-5-5--3-3-3-3-----|
|------------------------------|
|-3-3-3-3-3-3-3-3--1-1-1-1-----|
|------------------------------|  x2

and that's about all of it. only part i'm not 100% sure of is the bridge.


lyrics:
Nobody's safe 'round here no more
Drag this lonely boat from the shore
Cut the ropes that bind me
To save the ones behind me
Nobody's safe 'round here no more

No time to wait and see
I live this life for me

Rise and fall
Climb the walls
Won't stop till I have it all
Persistance
Resistance
One man can make a difference
The battles inside of me
The fights begun but not yet won
And I won't become
One more casualty

The need to find my destiny
Drop my anchors set me free
You don't know how it feels
Till your hands are on the wheel
Drop my anchors set me free

Rise and fall
Climb the walls
Won't stop till I have it all
Persistance
Resistance
One man can make a difference
The battles inside of me
The fights begun but not yet won
And I won't become
One more casualty

Nobody says we're free
We're drifting through the questions
Swimming for the answers
Try to keep my sanity
Till I reach my destination
And bring you here with me
And I'll make you believe
I have control
But if I lose myself
How can I save you

Rise and fall
Climb the walls
Won't stop till I have it all
Persistance
Resistance
One man can make a difference
The battles inside of me
The fights begun but not yet won
And I won't become
One more casualty
Tap to rate this tab
# A B C D E F G H I J K L M N O P Q R S T U V W X Y Z