Guitaretab - guitar tabs
Song name
# A B C D E F G H I J K L M N O P Q R S T U V W X Y Z

Lovehatehero - Goodbye My Love tab

 Guitar 1:
 Riff 1:
 d|-----10p0----10p0---------14p0-|---10p0----10p0--------------|\
 a|---------12p0----12p0-10p0-----|-------12p0----12p0-10p0-7p0-| \ 
 f|-------------------------------|-----------------------------| |
 c|-10----------------------------|-10--------------------------| |
 g|-10----------------------------|-10--------------------------| |
 C|-10----------------------------|-10--------------------------| |
                                                                  |x2
 d|-----10p0----10p0---------14p0-|---10p0----10p0--------------| |
 a|---------12p0----12p0-10p0-----|-------12p0----12p0-10p0-7p0-| |
 f|-------------------------------|-----------------------------| |
 c|-9-----------------------------|-9---------------------------| |
 g|-7-----------------------------|-7---------------------------| /
 C|-------------------------------|-----------------------------|/
 
 Guitar 2:
 Riff 1:
 d|------7p0---7p0-------10p0-----|----7p0-----7p0--------------|\
 a|---------8p0---8p0-7p0---------|--------8p0-----8p0--7p0-3p0-| \ 
 f|-------------------------------|-----------------------------| |
 c|-10----------------------------|-10--------------------------| |
 g|-10----------------------------|-10--------------------------| |
 C|-10----------------------------|-10--------------------------| |
                                                                  |x2
 d|------7p0-----7p0---------10p0-|----7p0-----7p0--------------| |
 a|----------8p0-----8p0--7p0-----|--------8p0-----8p0--7p0-3p0-| |
 f|-------------------------------|-----------------------------| |
 c|-9-----------------------------|-9---------------------------| |
 g|-7-----------------------------|-7---------------------------| /
 C|-------------------------------|-----------------------------|/
 
 Guitar 1&2
  Riff 2:
 d|--------------------|--------------------------------------------------| 
 a|--------------------|--------------------------------------------------| 
 f|-7------11----12----|--------------------------------------------------| 
 c|-5-x16--x--x8--x-x8-|-0-2-0-2-0-0-0-2-0-2-0-0-0-2-0-2-0-0-0-2-0-2-0-0-0| 
 g|-3------9-----10----|-0-2-0-2-0-0-0-2-0-2-0-0-0-2-0-2-0-0-0-2-0-2-0-0-0| 
 C|--------------------|-0-2-0-2-0-0-0-2-0-2-0-0-0-2-0-2-0-0-0-2-0-2-0-0-0|
                                 . . .       . . .       . . .       . . .

 Riff 3:
 Guitar 1&2:
 d|--7p0-5p0---7p0-5p0---7p0-5p0---7p0-------|
 a|---------8---------8---------8-----7------|  
 f|------------------------------------------| 
 c|------------------------------------------|
 g|-3---------3---------5---------5----------|
 C|------------------------------------------|

 Guitar 1:
 Riff 4:
 d|-----------------------------------------------|\                       
 a|-----------------------------------------------| \ 
 f|-12-------11-----12-11-9-11-14-12-11-9-(fast)--| |
 c|--9-x16---12-x10-------------------------------| |x2
 g|--7-------12-----------------------------------| /
 C|----------12-----------------------------------|/ 

 Guitar 2: 
 d|-------------------|\                       
 a|-------------------| \ 
 f|-12-------11-------| |
 c|--9-x16---12-x16---| |x2
 g|--7-------12-------| /
 C|----------12-------|/ 
 
  
 Riff 5:
 Guitar 1&2:
 d|--------------------------------------------|
 a|-------8--7-------8--7------8--7------8-7--|
 f|---11---11----11---11----11--11----11--11---|
 c|--9--9-------9--9-------9--9------9--9------|
 g|-7----------7----------5---------3----------|
 C|--------------------------------------------|
    ..  .      ..  .      ..  .     ..  .

 Bridge:
 Guitar 1:
 d|-----10p0----10p0---------14p0-|---10p0----10p0--------------| 
 a|---------12p0----12p0-10p0-----|-------12p0----12p0-10p0-7p0-| 
 f|-------------------------------|-----------------------------| 
 c|-9-----------------------------|-9---------------------------| 
 g|-7-----------------------------|-7---------------------------| 
 C|-------------------------------|-----------------------------|
 
 Guitar 2:
 d|-------------------------------|----7p0-----7p0--------------| 
 a|-------------------------------|--------8p0-----8p0--7p0-3p0-| 
 f|-------------------------------|-----------------------------| 
 c|-9-----------------------------|-9---------------------------| 
 g|-7-----------------------------|-7---------------------------| 
 C|-------------------------------|-----------------------------|  

 Riff 1:
 Guitar 1:
 d|-----10p0----10p0---------14p0-|---10p0----10p0--------------|
 a|---------12p0----12p0-10p0-----|-------12p0----12p0-10p0-7p0-| 
 f|-------------------------------|-----------------------------| 
 c|-10----------------------------|-10--------------------------| 
 g|-10----------------------------|-10--------------------------|
 C|-10----------------------------|-10--------------------------|
                                                                  
 d|-----10p0----10p0---------14p0-|---10p0----10p0--------------| 
 a|---------12p0----12p0-10p0-----|-------12p0----12p0-10p0-7p0-| 
 f|-------------------------------|-----------------------------| 
 c|-9-----------------------------|-9---------------------------| 
 g|-7-----------------------------|-7---------------------------| 
 C|-------------------------------|-----------------------------|

 Guitar 2:
 d|------7p0-----7p0---------10p0-|----7p0-----7p0--------------|
 a|---------8p0-----8p0--7p0------|--------8p0-----8p0--7p0-3p0-| 
 f|-------------------------------|-----------------------------| 
 c|-10----------------------------|-10--------------------------| 
 g|-10----------------------------|-10--------------------------|
 C|-10----------------------------|-10--------------------------|
                                                                  
 d|------7p0-----7p0---------10p0-|----7p0-----7p0--------------| 
 a|----------8p0-----8p0--7p0-----|--------8p0-----8p0--7p0-3p0-| 
 f|-------------------------------|-----------------------------| 
 c|-9-----------------------------|-9---------------------------| 
 g|-7-----------------------------|-7---------------------------| 
 C|-------------------------------|-----------------------------|
[ Tab from: http://www.guitaretab.com/l/lovehatehero/102101.html ]
 riff 6:(not sure)
 Guitar 1                                     (2nd time finished)
 d|-----------------------------------------------|\    d|---|
 a|-----------------------------------------------| \   a|---|
 f|-12---12--12--11----11--11--7---7--7--7---7--7-| |   f|-7*|
 c|--9--9---9----12--12--12----5--5--5---5--5--5--| |x2 c|---|
 g|--7-----------12------------3---------3--------| /   g|---|
 C|--------------12-------------------------------|/    C|---|
        . . . .       . . . .     .. ..     .. ..              
 Guitar 2:
 d|-----------------------------------------------|\
 a|-----------------------------------------------| \
 f|-12-----------11-------------------------------| |
 c|--9-----------12-------------------------------| |x2
 g|--7-----------12-------------------------------| /
 C|--------------12-------------------------------|/

 Riff 4:
 Guitar 1:
 d|-----------------------------------------------|\                       
 a|-----------------------------------------------| \ 
 f|-12-------11-----12-11-9-11-14-12-11-9-(fast)--| |
 c|--9-x16---12-x10-------------------------------| |x2
 g|--7-------12-----------------------------------| /
 C|----------12-----------------------------------|/ 
 
 Guitar 2:
 d|-------------------|\                       
 a|-------------------| \ 
 f|-12-------11-------| |
 c|--9-x16---12-x16---| |x2
 g|--7-------12-------| /
 C|----------12-------|/ 


 Riff 5:
 Guitar 1&2:
 d|--------------------------------------------|
 a|-------8--7-------8--7------8--7------8-7--|
 f|---11---11----11---11----11--11----11--11---|
 c|--9--9-------9--9-------9--9------9--9------|
 g|-7----------7----------5---------3----------|
 C|--------------------------------------------|
    ..  .      ..  .      ..  .     ..  .

 Riff 7:
 Guitar 1:
 d|-----------------|-----------------------------------|\
 a|------8*------7*-|-----------------------------------| \
 f|-----------------|-----------------------------------| |
 c|-9-9-----9-9-----|------5-7-5-4h5p4------5-7-5-4h5p4-| |x3    
 g|-7-7-7---7-7-7---|-33333-3---3------33333-3---3------| /
 C|-----------------|-----------------------------------|/
        .       .     ..... .   .      ..... .   .

 Guitar 2:
 d|-----------------|-------------------------------------|\
 a|------8*------7*-|-------------------------------------| \
 f|-----------------|-------------------------------------| |
 c|-9-9-----9-9-----|------9-10-7-7h9p7------9-10-7-7h9p7-| |x3    
 g|-7-7-7---7-7-7---|-77777-7----7------77777----7--------| /
 C|-----------------|-------------------------------------|/
        .       .     ..... .    .      .....    .

 
  Riff 4:
  Guitar 1:                                              
 d|-----------------------------------------------|\                        
 a|-----------------------------------------------| \ 
 f|-12-------11-----12-11-9-11-14-12-11-9-(fast)--| |
 c|--9-x16---12-x10-------------------------------| |x2
 g|--7-------12-----------------------------------| /
 C|----------12-----------------------------------|/ 

  Guitar 2:
 d|-------------------|\                       
 a|-------------------| \ 
 f|-12-------11-------| |
 c|--9-x16---12-x16---| |x2
 g|--7-------12-------| /
 C|----------12-------|/ 


 (2nd time finished)
 Guitar 1&2:
 d|----------------|                    
 a|----------------| 
 f|-12-------------| 
 c|--9-------------| 
 g|--7-------------|
 C|----------------|
 
 Solo:
 Guitar 1:
 d|-------------------------------------12h15p12-----12h15p12-----12h15p12|
 a|----------/13-12-13-15b15b15b---12h15--------12h15--------12h15--------|
 f|-/12-11-12-------------------------------------------------------------|
 c|-----------------------------------------------------------------------|
 g|-----------------------------------------------------------------------|
 C|-----------------------------------------------------------------------|

   -----12h15p12-----17p15p12-(x8)-19-17-15h17p15--15---------------------|
   12h15--------12h15----------------------------19--19-17-19-17-15-17----|
   -----------------------------------------------------------------------|
   -----------------------------------------------------------------------|
   -----------------------------------------------------------------------|
   -----------------------------------------------------------------------|

   --------15-17-19-17-15-------------------------------------------------|
   15-17-19--------------19-17-15-----------------------------------------|
   ------------------------------17-16-14---------------------------------|
   --------------------------------------17-16-14-------------------------|
   ----------------------------------------------15-14-12--------14--12-14|
   ------------------------------------------------------17-15-14---------|

   -------------------------------------------------------12-14-15-14-12|
   -------12/15\12--------------------------------12-13-15--------------|
   -/12-11----------/12-11-14br-/12-11----11-12-14----------------------|
   -----------------------------------12--------------------------------|
   ---------------------------------------------------------------------|
   ---------------------------------------------------------------------|

   --------------------------------------t19p12h15(x4)-t20p12h15(x4)-|
   15-13-12----------------------------------------------------------|
   --------14-12-11---------------6*-7*------------------------------|
   ----------------12-11-9-------------------------------------------|
   -----------------------12-10-9------------------------------------|
   ------------------------------------------------------------------|

   t17p10h14(x4)-t19p10h14(x4)-t15p8h12(x4)-t17p8h12(x4)-t15/17p8h12(x8)|
   ---------------------------------------------------------------------|
   ---------------------------------------------------------------------|
   ---------------------------------------------------------------------|
   ---------------------------------------------------------------------|
   ---------------------------------------------------------------------|
 
   Solo:
   Guitar 2:
 d|-------------------|\     d|----------------------------|\
 a|-------------------| \    a|----------------------------| \
 f|-9--------5--------| |    f|-9--------7--------5--------| |
 c|-9-(x16)--5-(x16)--| |x2  c|-9-(x10)--7-(x10)--5-(x16)--| |x2
 g|-7--------3--------| /    g|-7--------5--------3--------| /
 C|-------------------|/     C|----------------------------|/

   Riff 4:
   Guitar 1:                                              
 d|-----------------------------------------------|                       
 a|-----------------------------------------------| 
 f|-12-------11-----12-11-9-11-14-12-11-9-(fast)--| 
 c|--9-x16---12-x10-------------------------------| 
 g|--7-------12-----------------------------------|
 C|----------12-----------------------------------|

   Guitar 2:
 d|-------------------|\                       
 a|-------------------| \ 
 f|-12-------11-------| |
 c|--9-x16---12-x16---| |x2
 g|--7-------12-------| /
 C|----------12-------|/ 
 
 That's my first tab so please rate it!!!!!!!
Related for Goodbye My Love tab