Guitaretab - guitar tabs
Song name
# A B C D E F G H I J K L M N O P Q R S T U V W X Y Z

Lovehatehero - Running With Sissors tab

RUNNING WITH SISSORS
LOVEHATEHERO
WHITE LIES, 2007

DROP C, CGCFAD
GTR1-LEAD DISTORTED
GTR2-RHYTHM OVERDUB
GTR3-OTHER OVERDUB

INTRO/VERSE
GTR1
|---|-------------------------------------|----------------------------------------|
|---|-------------------------------------|----------------------------------------|
|---|-------------------------------------|----------------------------------------|
|-0-|-------------------------------------|----------------------------------------|
|-0-|-5-0-0-0-0---7-0-0-0-0-0-0-0--7---8--|-5-0-0-0-0---7-0-0-0-0-0-0-0--7--0-8--0-|
|-0-|-----0-0-0-------0-0-0-0-0-0---------|-----0-0-0-------0-0-0-0-0-0------------|

|--------------------------------|
|--------------------------------|
|----------------10--9-----------|
|--------10------------10----10--|
|---7--8----8--7----------12-----| X2
|-8------------------------------|

GTR2
|---|-------------------------------------|----------------------------------------|
|---|-------------------------------------|----------------------------------------|
|---|-------------------------------------|----------------------------------------|
|-0-|-------------------------------------|----------------------------------------|
|-0-|-8-0-0-0-0--10-0-0-0-0-0-0-0--10--12-|-8-0-0-0-0--10-0-0-0-0-0-0-0--10-0-12-0-|
|-0-|-----0-0-0-------0-0-0-0-0-0---------|-----0-0-0-------0-0-0-0-0-0------------|

|-------------------------------|
|-------------------------------|
|---------9------10*-12-10-9----| *PINCH HARMONIC
|----------------------------10-|
|---10-12---12-10---------------| X2
|-8-----------------------------|
PLAY INTRO/VERSE TWICE

Pre Chorus
GTR1
|--------|  |----------|  |----|
|--------|  |----------|  |----|
|--------|  |----------|  |-12~|
|-----10-|  |-------14-|  |----|
|--------|X6|----------|X6|----|END ON
|-8-8----|  |-12-12----|  |----|

GTR2
|--------|  |-------3--|  |-8~|
|--------|  |----------|  |---|
|------5-|  |----------|  |---|
|--------|  |-3--------|  |---|
|-5-5----|X6|----3-----|X6|---|END ON
|--------|  |----------|  |---|
PLAY PRE CHORUS TWICE

CHORUS
GTR1
|-------------------------------------------------|
|-------------------------------------------------|
|-------------------------------------------------|
|-7-0-0-0-0-0-5-0-0-0-0-0-0-8-0-7-0-5-0-3-0-5-0-7-|
|-------------------------------------------------|
|-------------------------------------------------|

|-------------------------------------------------|
|-------------------------------------------------|
|-------------------------------------------------|
|-3-----------2-------------5---3---2---0---2---3-|
|---1-1-1-1-1---1-1-1-1-1-1---1---1---1---1---1---|
|-------------------------------------------------|

|-------------------------------------------------|
|-------------------------------------------------|
|-0-----------2-------------0---------------------|
|---3-3-3-3-3---3-3-3-3-3-3---3-3-3-3-3-2---0-----|
|-----------------------------------------0---0-3-|
|-------------------------------------------------|
DONíT KNOW THE REST MAYBE PLAY AROUND WITH 
HARMONICS ON 3, AND DEAD NOTES W/ SOME PHASER

SECOND TIME ONLY 
|---------------------------------------------------|
|---------------------------------------------------|
|---------------------------------------------------|
|-0-5--5--5-0-5--5--5-0-5--5--5-0-5--5--5-0-5--5--5-|
|-0-5--5--5-0-5--5--5-0-5--5--5-0-5--5--5-0-5--5--5-|
|-0-5--5--5-0-5--5--5-0-5--5--5-0-5--5--5-0-5--5--5-|

GTR2
|---------------|------------------|-----------------|-----------------|
|---------------|------------------|-----------------|-----------------|
|-7-----9--10---|-17----15---14----|-10----12---14---|-12----15---14---|
|-X-X12-X6-X-X6-|-X-X12-X-X6-X--X6-|-X-X12-X-X6-X-X6-|-X-X12-X-X6-X-X6-|
|-5-----7--8----|-15----13---12----|-8-----10---12---|-10----13---12---|X2
|---------------|------------------|-----------------|-----------------|

REPEAT INTRO/VERSE
REPEAT PRE CHORUS
REPEAT CHORUS

BRIDGE PT.1
GTR1
|-------------------------------|----------------------------|
|-------------------------------|----------------------------|
|---------------------5-7--5----|----------------------------|
|-8-7-0-0-0--3-5-3-----------7--|-8-7-0-0-0--3---2---3-5-3---|
|-8-7-0-0-0--------5------------|-8-7-0-0-0----------------5-|
|-8-7-0-0-0---------------------|-8-7-0-0-0----0---0---------|

GTR2
|-------------------------------|----------------------------|
|-------------------------------|----------------------------|
|---------------------9-10-9----|----------------------------|
|-8-7-0-0-0--7-8-7-----------10-|-8-7-0-0-0--7---5---7-8-7---|
|-8-7-0-0-0--------8------------|-8-7-0-0-0----------------8-|
|-8-7-0-0-0---------------------|-8-7-0-0-0----0---0---------|
[ Tab from: http://www.guitaretab.com/l/lovehatehero/187124.html ]
BRIDGE PT.2
GTR1
|---------------------------------------------------------|
|---------------------------------------------------------|
|---------------------------------------------------------|
|-8---8-8-10---10-10-7---7-7-3---3-3-8---8-8-10---10-10-0-|
|-8---8-8-10---10-10-7---7-7-3---3-3-8---8-8-10---10-10-0-|X2
|-8---8-8-10---10-10-7---7-7-3---3-3-8---8-8-10---10-10-0-|

GTR2
|---------------------------------------------------------|
|---------------------------------------------------------|
|---------------------------------------------------------|
|-8---8-8-10---10-10-7---7-7-3---3-3-8---8-8-10---10-10-0-|
|-8---8-8-10---10-10-7---7-7-3---3-3-8---8-8-10---10-10-0-|X2
|-8---8-8-10---10-10-7---7-7-3---3-3-8---8-8-10---10-10-0-|

GTR3-SMALL LEAD PART
|-17-13----------13/22-17----------|
|-------15----15----------18-------|
|----------14----------------19----|
|----------------------------------|
|-------------------------------17-|
|----------------------------------|


BRIDGE PT.3
GTR1
|-------------------------------------|
|-------------------------------------|
|-/10-9------------/14-12-10----------|
|-------10-------------------14---10B-|
|----------12-10-8--------------------|
|-------------------------------------|
GTR2
|-------------------------------------|
|-/3---1-----------/6--5--------------|
|--------2---------------5------------|
|----------3--2--0---------7-5----0---|
|------------------------------6--0---|
|---------------------------------0---|

SOLO
GTR1
|---------------------------------------------------------------|
|------------------------------10-------------------------------|
|-9-10-9-----9-10-9-12--9-10-9-----12-10-12-10-9--9-10-9--------|
|--------12----------------------------------------------10-----|
|------------------------------------------------------------12-|
|---------------------------------------------------------------|

|------------------12H13-/17-13-------|
|------------10H13--------------15-13-|
|-------9H10--------------------------|
|----10-------------------------------|
|-12----------------------------------|
|-------------------------------------|

  R  L  R  L  R  L  R  L  R  L  R  L  R  L  R  L  R  L  R  L  R  L  R  L
|-15-10-13-17-10-13-15-10-13-17-10-13-15-10-13-17-10-13-15-10-13-17-10-13-|
|-------------------------------------------------------------------------|
|-------------------------------------------------------------------------|
|-------------------------------------------------------------------------|
|-------------------------------------------------------------------------|
|-------------------------------------------------------------------------|

  R  L  R  L  R  L  R  L  R  L  R  L  R  L  R  L  R  L  R  L  R  L  R  L
|-------------------------------------------------------------------------|
|-15-10-13-17-10-13-15-10-13-17-10-13-15-10-13-17-10-13-15-10-13-17-10-13-|
|-------------------------------------------------------------------------|
|-------------------------------------------------------------------------|
|-------------------------------------------------------------------------|
|-------------------------------------------------------------------------|

  R  L  R  L  R  L  R  L  R  L  R  L  R  L  R  L  R  L  R  L  R  L  R  L
|-------------------------------------------------------------------------|
|-22-10-20-10-18-10-20-10-18-10-17-10-18-10-17-10-15-10-17-10-15-10-13-10-|
|-------------------------------------------------------------------------|
|-------------------------------------------------------------------------|
|-------------------------------------------------------------------------|
|-------------------------------------------------------------------------|

|--------/22B24D22----|
|-15B17------------22-| SORRY I DONíT KNOW THE 
|---------------------| LEAD IN THE OUTRO
|---------------------|
|---------------------|
|---------------------|

GTR2
|---|---|---|---|
|---|---|---|---|
|---|---|---|---|
|-0-|-8-|-3-|-5-|
|-0-|-8-|-3-|-5-|X2
|-0-|-8-|-3-|-5-|

OUTRO
GTR1
|-----------------------------|------------------------------|
|-----------------------------|------------------------------|
|--------14--------14-12-10-9-|--------17--------17-15-14-10-|
|-0------X--0--0-0-X--X--X--X-|-8--8-8-X--8--8-8-X--X--X--X--|
|-0------12-0--0-0-12-10-8--7-|-8--8-8-12-8--8-8-15-13-12-8--|
|-0---------0--0-0------------|-8--8-8----8--8-8-------------|

|-----------------------------------|-------------------------------|
|--------------------------------10-|-------------------------------|
|--------10--------12-10-9-10-12----|--------12--------12-14-14-----|
|-3--3-3-X--3--3-3------------------|-2--2-2-X--2--2-2-X--X--X---0~-|
|-3--3-3-8--3--3-3------------------|-2--2-2-10-2--2-2-10-12-12--0~-|
|-3--3-3----3--3-3------------------|-2--2-2----2--2-2-----------0~-|
Related for Running With Sissors tab