Song name
# A B C D E F G H I J K L M N O P Q R S T U V W X Y Z

Lovehatehero - Echoes tab

-------------------------------------------------------------------------------
			    Echoes - LoveHateHero
-------------------------------------------------------------------------------
Tabbed by: Andrew Tamalunas
Email: lmaonade123@gmail.com

Tuning: Drop C tuning: CGCFAD


Enjoy.


    PM..............          PM.............
D|------------------------------------------------------------|
A|------------------------------------------------------------|
F|.-----------------------------------------------------------|
C|.------------------7--7--7------------------3--3--3---------|
G|-------------------8--8--8------------------5--5--5---------|
C|--8-8-8-8-8-8-8-8--8--8--8--5-5-5-5-5-5-5-5-5--5--5---------|
  

   PM      PM      PM      PM
D|------------------------------------------------------------|
A|------------------------------------------------------------|
F|-----------------------------2h3p2-------------------------.|  2x
C|----3p2-----5p3------7p5------------5-3-2-5----------------.| 
G|------------------------------------------------------------|  
C|-0-------0-------0--------0---------------------------------| 


D|-------------------------------------------------------------------|
A|-------------------------------------------------------------------|
F|.---------------------------------------.------.------.------.----.| 3x
C|.--8-8--------10-----5-5------7-----0-0-0--0-0-0--0-0-0--0-0-0----.|
G|---8-8--10-12----12--5-5--7-8---8---0-0-0--0-0-0--0-0-0--0-0-0-----|
C|---8-8---------------5-5------------0-0-0--0-0-0--0-0-0--0-0-0-----|


D|-------------------------------------------------------|
A|-------------------------------------------------------|
F|.------------------------------------------------5-----|
C|.--8-8--------10-----5-5------7-----3-3-3-3-3-3--------|
G|---8-8--10-12----12--5-5--7-8---8---3-3-3-3-3-3--------|
C|---8-8---------------5-5------------3-3-3-3-3-3--------|

D|-------------------------------------------------------------|
A|-------------------------------------------------------------|
F|.-3-3-3-3-3-3-3-3--5-5-5-5-5-5-5-5---------------------------|
C|.-3-3-3-3-3-3-3-3--5-5-5-5-5-5-5-5--0-0-0-0-0-0-0-0----------|
G|--1-1-1-1-1-1-1-1--3-3-3-3-3-3-3-3--0-0-0-0-0-0-0-0----------|
C|------------------------------------0-0-0-0-0-0-0-0----------|

D|--------------------------|
A|--------------------------|
F|-------------------------.|
C|-3-3-3-3-3-3-3-3---------.| 3x
G|-3-3-3-3-3-3-3-3----------|
C|-3-3-3-3-3-3-3-3----------| 

D|-------------------------------------------------------------|
A|-------------------------------------------------------------|
F|--3-3-3-3-3-3-3-3--5-5-5-5-5-5-5-5---------------------------|
C|--3-3-3-3-3-3-3-3--5-5-5-5-5-5-5-5--0-0-0-0-0-0-0-0----------|
G|--1-1-1-1-1-1-1-1--3-3-3-3-3-3-3-3--0-0-0-0-0-0-0-0----------|
C|------------------------------------0-0-0-0-0-0-0-0----------|

D|--------------------------|
A|--------------------------|
F|-5-5-5-5-5-5-5-5----------|
C|-5-5-5-5-5-5-5-5----------|
G|-3-3-3-3-3-3-3-3----------|
C|--------------------------|

    PM..............          PM.............
D|------------------------------------------------------------|
A|------------------------------------------------------------|
F|------------------------------------------------------------|
C|-------------------7--7--7------------------3--3--3---------|
G|-------------------8--8--8------------------5--5--5---------|
C|--8-8-8-8-8-8-8-8--8--8--8--5-5-5-5-5-5-5-5-5--5--5---------|
  

   PM      PM      PM      PM
D|------------------------------------------------------------|
A|------------------------------------------------------------|
F|-----------------------------2h3p2--------------------------|  
C|----3p2-----5p3------7p5------------5-3-2-------------------| 
G|------------------------------------------------------------|  
C|-0-------0-------0--------0---------------------------------| 

D|-------------------------------------------------------------------|
A|-------------------------------------------------------------------|
F|.---------------------------------------.------.------.------.----.| 3x
C|.--8-8--------10-----5-5------7-----0-0-0--0-0-0--0-0-0--0-0-0----.|
G|---8-8--10-12----12--5-5--7-8---8---0-0-0--0-0-0--0-0-0--0-0-0-----|
C|---8-8---------------5-5------------0-0-0--0-0-0--0-0-0--0-0-0-----|


D|------------------------------------------------------------|
A|---------------------------------------------------------.--|
F|.------------------------------------------------5-5-5-5-5--|
C|.--8-8--------10-----5-5------7-----3-3-3-3-3-3--5-5-5-5-5--|
G|---8-8--10-12----12--5-5--7-8---8---3-3-3-3-3-3--3-3-3-3-3--|
C|---8-8---------------5-5------------3-3-3-3-3-3-------------|

D|-------------------------------------------------------------|
A|-------------------------------------------------------------|
F|.-3-3-3-3-3-3-3-3--5-5-5-5-5-5-5-5---------------------------|
C|.-3-3-3-3-3-3-3-3--5-5-5-5-5-5-5-5--0-0-0-0-0-0-0-0----------|
G|--1-1-1-1-1-1-1-1--3-3-3-3-3-3-3-3--0-0-0-0-0-0-0-0----------|
C|------------------------------------0-0-0-0-0-0-0-0----------|

D|--------------------------|
A|--------------------------|
F|-------------------------.|
C|-3-3-3-3-3-3-3-3---------.| 3x
G|-3-3-3-3-3-3-3-3----------|
C|-3-3-3-3-3-3-3-3----------| 

D|-------------------------------------------------------------|
A|-------------------------------------------------------------|
F|--3-3-3-3-3-3-3-3--5-5-5-5-5-5-5-5---------------------------|
C|--3-3-3-3-3-3-3-3--5-5-5-5-5-5-5-5--0-0-0-0-0-0-0-0----------|
G|--1-1-1-1-1-1-1-1--3-3-3-3-3-3-3-3--0-0-0-0-0-0-0-0----------|
C|------------------------------------0-0-0-0-0-0-0-0----------|

D|--------------------------|
A|--------------------------|
F|-5-5-5-5-5-5-5-5----------|
C|-5-5-5-5-5-5-5-5----------|
G|-3-3-3-3-3-3-3-3----------|
C|--------------------------|

           PM....    PM........                   PM....
D|-------------------------------------------------------------|
A|-------------------------------------------------------------|
F|.----.--.---------.-------------------------.-.---------.---.|  
C|.--3-0--0---------0------------2h3--2h3--3--0-0---------0---.| 4 or 5
G|---3-0--0---------0------------3----3----3--0-0---------0----|  times
C|---3-0--0--0-0-0--0--0-0-0--0------------3--0-0--0-0-0--0----| 

D|----13-17----13-17-----13-17-----13-17----13-17--------------|
A|-15-------15--------15--------15-------15-------15-----------|
F|-------------------------------------------------------------|
C|-------------------------------------------------------------|
G|-------------------------------------------------------------|
C|-------------------------------------------------------------|

D|----13-15----13-15-----13-15-----13-15----13-15--------------|
A|-15-------15--------15--------15-------15-------15-----------|
F|-------------------------------------------------------------|
C|-------------------------------------------------------------|
G|-------------------------------------------------------------|
C|-------------------------------------------------------------|

D|-------------------------------------------------------------|
A|-------------------------------------------------------------|
F|.-3-3-3-3-3-3-3-3--5-5-5-5-5-5-5-5---------------------------|
C|.-3-3-3-3-3-3-3-3--5-5-5-5-5-5-5-5--0-0-0-0-0-0-0-0----------|
G|--1-1-1-1-1-1-1-1--3-3-3-3-3-3-3-3--0-0-0-0-0-0-0-0----------|
C|------------------------------------0-0-0-0-0-0-0-0----------|

D|--------------------------|
A|--------------------------|
F|-------------------------.|
C|-3-3-3-3-3-3-3-3---------.| 3x
G|-3-3-3-3-3-3-3-3----------|
C|-3-3-3-3-3-3-3-3----------| 

D|-------------------------------------------------------------|
A|-------------------------------------------------------------|
F|--3-3-3-3-3-3-3-3--5-5-5-5-5-5-5-5---------------------------|
C|--3-3-3-3-3-3-3-3--5-5-5-5-5-5-5-5--0-0-0-0-0-0-0-0----------|
G|--1-1-1-1-1-1-1-1--3-3-3-3-3-3-3-3--0-0-0-0-0-0-0-0----------|
C|------------------------------------0-0-0-0-0-0-0-0----------|

D|--------------------------|
A|--------------------------|
F|-5-5-5-5-5-5-5-5----------|
C|-5-5-5-5-5-5-5-5----------|
G|-3-3-3-3-3-3-3-3----------|
C|--------------------------|

D|-17-13----17-13----17-13----17-13----17-13-------------------|
A|-------15-------15-------15-------15-------15----------------|
F|-------------------------------------------------------------|
C|-------------------------------------------------------------|
G|-------------------------------------------------------------|
C|-------------------------------------------------------------|

D|-20-17----20-17----20-17----20-17----20-17-------------------|
A|-------18-------18-------18-------18-------18----------------|
F|-------------------------------------------------------------|
C|-------------------------------------------------------------|
G|-------------------------------------------------------------|
C|-------------------------------------------------------------|

D|---------15------------------------------------------------|
A|-15--18----------18----------------------------------------|
F|-------------17--------------------------------------------|
C|-----------------------------------------------------------|
G|-----------------------------------------------------------|
C|-----------------------------------------------------------|


| /  slide up
| \  slide down
| h  hammer-on
| p  pull-off
| ~  vibrato
| +  harmonic
| x  Mute note
| PM  Palm Mute
| . (above note)  Stacatto
===============================================================================
Tap to rate this tab
 
# A B C D E F G H I J K L M N O P Q R S T U V W X Y Z