Song name
# A B C D E F G H I J K L M N O P Q R S T U V W X Y Z

Lovehatehero - Wait To See You tab

Lovehatehero - Wait to see you 
Album: America Underwater (2009)
Track 6

Standard Tuning

Intro (00:00)

Guitar 1
|-0h1---3--1---0h1---3--1-|--0h1--3--1--1--5--1---|
|-------------------------|-----------------------|
|-------------------------|-----------------------|
|-------------------------|-----------------------|
|-------------------------|-----------------------|
|-------------------------|-----------------------|


|--------------------|---------------------|
|--3--5--3--3--5--3--|----1--------1-------|
|--------------------|-2-----2--2----------|
|--------------------|---------------------|
|--------------------|---------------------|
|--------------------|---------------------|

Guitar 2
|---------------|--------------|-----------------|---------------|
|---------------|--------------|-----------------|---------------|
|---------------|--------------|-----------------|---------------|
|-3---3--3----3-|--------------|-----------------|---------------|
|---------------|-3----3--3-3--|-5--5-5-5--5-55-5|--1-1-1-1--1---|
|---------------|--------------|-----------------|---------------|

Verse 1(00:11)

Guitar 1
|-0h1---3--1---0h1---3--1-|--0h1--3--1--1--5--1---|
|-------------------------|-----------------------|
|-------------------------|-----------------------|
|-------------------------|-----------------------|
|-------------------------|-----------------------|
|-------------------------|-----------------------|

		      1.		    2.
|--------------------|---------------------|-----0---------------|
|--3--5--3--3--5--3--|----1--------1-------|--1-----1------------|
|--------------------|-2-----2--2----------|---------------------|
|--------------------|---------------------|---------------------|
|--------------------|---------------------|---------------------|
|--------------------|---------------------|---------------------|

Guitar 2
|---------------|--------------|-----------------|---------------|
|---------------|--------------|-----------------|---------------|
|---------------|--------------|-----------------|---------------|
|-3---3--3----3-|--------------|-----------------|---------------|
|---------------|-3----3--3-3--|-5--5-5-5--5-55-5|--1-1--1-1-----|
|---------------|--------------|-----------------|---------------| x2


Pre Chorus (00:34)

something like
|-----------------|     
|-----------------|
|-----------------|
|-0-3-3-0-3-3-0-3-|
|-----------------|
|-----------------|x15 
  . . . . . . . .

end with
|------1--0----(0)---|
|--------------------|
|--2-----------------|
|--------------------|
|--------------------|
|--------------------|


Verse 2 (00:59)

Pre Chorus (01:22)

Bridge (01:46)

|-------------------------------|------------------------------------|
|-------------------------------|------------------------------------|
|-------------3-3-3-3-3-3-3-3-3-|-5-5-5-5-5-5-5-5-7-7-7-7-7-10-10-10-|
|-3-3-3-3-3-3-3-3-3-3-3-3-3-3-3-|-5-5-5-5-5-5-5-5-7-7-7-7-7-10-10-10-|
|-3-3-3-3-3-3-1-1-1-1-1-1-1-1-1-|-3-3-3-3-3-3-3-3-5-5-5-5-5-8--8--8--|
|-1-1-1-1-1-1-------------------|------------------------------------| x3

|-------------------------------|------------------------------------|
|-------------------------------|------------------------------------|
|-------------3-3-3-3-3-3-3-3-3-|-5~~~~~~~~~~~~~~~~~~~~~~~~~~~~~~~~--|
|-3-3-3-3-3-3-3-3-3-3-3-3-3-3-3-|-5~~~~~~~~~~~~~~~~~~~~~~~~~~~~~~~~--|
|-3-3-3-3-3-3-1-1-1-1-1-1-1-1-1-|-3~~~~~~~~~~~~~~~~~~~~~~~~~~~~~~~~--|
|-1-1-1-1-1-1-------------------|------------------------------------|


Chorus(02:11)

|-------------------------|--------------------------|
|-------------------------|--------------------------|
|-3--3--3--3--3--3--3--3--|--5--5--5--5--5--5--5--5--|
|-3--3--3--3--3--3--3--3--|--5--5--5--5--5--5--5--5--|
|-1--1--1--1--1--1--1--1--|--3--3--3--3--3--3--3--3--|
|-------------------------|--------------------------|

|-------------------------|--------------------------|
|-------------------------|--------------------------|
|-7--7--7--7--7--7--7--7--|--------------------------|
|-7--7--7--7--7--7--7--7--|--3--3--3--3--3--3--3--3--|
|-5--5--5--5--5--5--5--5--|--3--3--3--3--3--3--3--3--|
|-------------------------|--1--1--1--0--0--0--0--0--| x4

Guitar2 does some soloing 3rd and 4th time

Outro = Intro x2 (02:57)
Tap to rate this tab
# A B C D E F G H I J K L M N O P Q R S T U V W X Y Z