Song name
# A B C D E F G H I J K L M N O P Q R S T U V W X Y Z

Lovehatehero - America Underwater tab

This is my first tab... love the site great song blablabla
any questions leave a comment and yea hope you enjoy.

Intro/Chorus Riff
|-4h6p4---1-4-------------------|
|-----------------5-7-5-7-------|
|-------------------------------|
|-------------------------------|
|-------------------------------|
|-------------------------------|

Verse (figure out the strumming its pretty basic)
|-------------------------------|
|-------------------------------|
|-6----3------------------------|
|-6----3----4----6--------------|
|-4----1----4----6--------------|
|-----------2----4--------------|


PreChorus (Use some variation to make it right, but it sounds right enough)
|-------------------------------|
|-----7--5/7--7---7--55--7------|
|--66-----------6---------------|
|-------------------------------|
|-------------------------------|
|-------------------------------|

The break
|-------------------------------|               |- |
|-------------------------------|               |- |
|-------------------------------|               |- |
|-3-4---6-8---------------------|   X4          |11|
|-3-4---6-8---------------------|               |11|
|-1-2---4-6---------------------|     End on    |9 | 

Outro solo (not 100%correct)
|--9----11--9----|                |-14--13--11/9-----|
|----10----------|                |---------------10-|
|----------------| X4 then go into|------------------|repeat whole outro till
|----------------|                |------------------|end
|----------------|                |------------------|
|----------------|                |------------------|
Tap to rate this tab
 
# A B C D E F G H I J K L M N O P Q R S T U V W X Y Z