Song name
# A B C D E F G H I J K L M N O P Q R S T U V W X Y Z

Lovehatehero - Amity tab

http://www.lovehatehero.com/

LoveHateHero
Amity
White Lies
Whole Step Down (DGCFAD)

h=Hammer-on
p=Pull off
\=Slide Down
/=Slide Up
~=Let ring
*=Pinch Harmonic

Intro (Lead Guitar)
=====
------------------------------------------------------|
------------------------------------------------------|
---------9---------9-12--------------9----------9-12~-|
---10-12-----10-12------10-----10-12------10-12-------|
-8---------8----------------12---------10-------------|
------------------------------------------------------|

---------------------------------------------------|
---------------------------------------------------|
---------9---------9-12--------------9----------9*-|
---10-12-----10-12------10-----10-12------10-12----|
-8---------8----------------12---------10----------|
---------------------------------------------------|

Intro (Rhythm Guitar) (These are just the chords.. you can figure out the rhythm)
=====
-------------|
-------------|
-12---9----7-|
-10---10---5-|
-8---------3-|
-----------3-|

Verse
=====
------------------------------------|
------------------------------------|
-----2--------4--------5---------9*-|
---5--5-----7--7-----9---9-----9----|
--3-3------5-5------7-7-------7-7---|
-1--------3--------5---------5------|

Pre-Chorus
==========
-------1-5-----------------3-7-----------12-8------------------------------|
---------------------------------------------10----------------------------|
----2-5---5-2----------4-7-----------5-9-------9-------------9--------9*---|
---3----------3------5------------7-9------------10--------12--12----------|
--3------------3----5------------7------------------12---10-------10-12----|
-1----------------/3------------5-----------------------8------------------|

Repeat Chorus

Verse 2
=======
------------------------------------------------------------|
------------------------------------------------------------|
-1616-1616-1616----------------1919-1919-1919---------------|
------------------------------------------------------------|
-1414-1414-1414--7777-8p7------1717-1717-1717--7777-8p7-----|
--------------------------8//---------------------------8//-|

--------------------------------------------------|
--------------------------------------------------|
-1414-1414-1414----------------1212-1212-1212-12~-|
--------------------------------------------------|
-1212-1212-1212--7777-8p7------1010-1010-1010-10~-|
--------------------------8//---------------------|

Repeat Chorus

Build up
========
(Lead)
---------------------------
-12~~~13~~~12~~~13~~~10~~~-
---------------------------|
---------------------------|
---------------------------|

(Rhythm)
========
-----------------------------------------------------|
-----------------------------------------------------|
--------------9---9---9---4--5--7---4---5-5-5--7-7-7-|
-10--12--14---10--12--14--5--5--5---5---5-5-5--5-5-5-|
-8---8---8----0---0---0---3--3--3---3---3-3-3--3-3-3-|
-----------------------------------------------------|

Solo
====
-17--17--17------------------------------------------17--------17--------17---19b20-|
-20b-20b-20b--17h18p17--------------------------17-20--20-17-20--20-17-20--20-------|
----------------------h19p17-19b*-19p17----17~--------------------------------------|
----------------------------------------19------------------------------------------|
------------------------------------------------------------------------------------|
------------------------------------------------------------------------------------|

----20-19-17---------------------------------|
-17----------20-18-17------------------------|
---------------------17-16-14----------16b~~-|
------------------------------17-15-14-------|
---------------------------------------------|
---------------------------------------------|

---------17-19-20-19-17--------------17-19-20-19-17--------------17-19-20-19-17---------|
-17-18-20--------------20-18-17-18-20--------------20-18-17-18-20--------------20-18-17-|
----------------------------------------------------------------------------------------|
----------------------------------------------------------------------------------------|
----------------------------------------------------------------------------------------|
----------------------------------------------------------------------------------------|

---------17-19-20-19-17---------------------------------------------------------------|
-17-18-20--------------20-18-17-------------------------------------------------------|
--------------------------------17-16-14----------------------------------------------|
----------------------------------------17-15-14--------------------------------------|
-------------------------------------------------15-14-12--------------------14-16-17-|
----------------------------------------------------------15-13-12-/14-15-17----------|

-------------------------------------------------|
--------------------------------------------20b~-|
-17/21\17------17/21/17--------17/21\17----------|
---------19------------19--19----------19--------|
-----------19~-----------19--------------19------|
-------------------------------------------------|

----------------------------|
-17-18-17-------------------|
----------17-19-17-16-------|
---------------------17-19~-|
----------------------------|
----------------------------|
Tap to rate this tab
# A B C D E F G H I J K L M N O P Q R S T U V W X Y Z