Song name
# A B C D E F G H I J K L M N O P Q R S T U V W X Y Z

Loverboy - Turn Me Loose tab

//this is my first tab and I hope that it helps you.// 
() play if u want
B full bend
rB release full bend
Br full bend and release
p pull off
h hammer on
v vibrato
/ slide up
\ slide down

|---------------------------------|---------------------------------|
|---------------------------------|---------------------------------|
|------------------------3--------|------------------------3--------|
|--(5)--5--------(5)-----3--------|--(5)--5--------(5)-----3--------|
|---5---5--------(5)-----3--------|---5---5--------(5)-----3--------|
|---3---3---------3---------------|---3---3---------3---------------|


|------------------------2--------|---------------------------------|
|------------------------2--------|---------------------------------|
|------------------------0--------|---------------------------------|
|--(3)--3--------(3)--------------|-------x----x----x----x----x-----|
|---3---3--------(3)--------------|-------x----x----x----x----x-----|
|---1---1---------1---------------|-------1----1----1----2----2-----|


|---------------------------------|---------------------------------|
|---------------------------------|---------------------------------|
|------------------------3--------|------------------------3--------|
|--(5)--5--------(5)-----3--------|--(5)--5--------(5)-----3--------|
|---5---5--------(5)-----3--------|---5---5--------(5)-----3--------|
|---3---3---------3---------------|---3---3---------3---------------|


|---------------------------------|
|-------------3----5Br----3-------|
|-------5-------------------------|
|---------------------------------|
|---------------------------------|
|---------------------------------|


|---------------------------------|---------------------------------|
|---------------------------------|---------------------------------|
|------------------------3--------|------------------------3--------|
|--(5)--5--------(5)-----3--------|--(5)--5--------(5)-----3--------|
|---5---5--------(5)-----3--------|---5---5--------(5)-----3--------|
|---3---3---------3---------------|---3---3---------3---------------|


|------------------------------------------------------|
|------------------------------------------------------|
|--------------------------3-----5-----3---------------|
|--------------------------3-----3-----3---5-----------|
|-------5----------5-----------------------------------|
|-------3----------3-----------------------------------|


|------------------------------------|
|------------------------------------|
|------------------------3-------5B--|
|--(5)--5--------(5)-----3-----------|
|---5---5--------(5)-----3-----------|
|---3---3---------3------------------|


|-----3----------------------------|
|---------6p-3-----3---------------|
|---------------5-----6p-5p-3------|
|----------------------------------|
|----------------------------------|
|----------------------------------|


|------------------------3-/-10---|-----15-\------------------------|
|------------------------1-/--8---|-----13-\------------------------|
|---------------------------------|---------------------------------|
|--(3)--3--------(3)--------------|------------x--x--x--x--x--x--x--|
|---3---3--------(3)--------------|------------x--x--x--x--x--x--x--|
|---1---1---------1---------------|------------1--1--1--1--2--2--2--|


|------------------------------------|------------------------------------|
|------------------------------------|------------------------------------|
|------------------------3-----5B----|--rB-vvvvvv-3h5p3-------------------|
|--(5)--5--------(5)-----3-----------|------------------5-----3h5p3-------|
|---5---5--------(5)-----3-----------|-------------------------------5----|
|---3---3---------3------------------|------------------------------------|

i will post the verse, chorus and solo soon
Tap to rate this tab
 
# A B C D E F G H I J K L M N O P Q R S T U V W X Y Z