Song name
# A B C D E F G H I J K L M N O P Q R S T U V W X Y Z

Loverboy - Turn Me Loose tab

Second power chord is F2/G (no 3rd)

|-------------------------------|---------|--------------------------------|
|-----------------------------3-|---------|------------------------------3-|
|---------------------------3---|---------|----------------------------3---|
|------5--------5---------3-----|---------|-------5--------5---------3-----|
|----5--------5-----------------|---------|-----5--------5-----------------|
|--3--------3--------3----------|---------|---3--------3--------3----------|

                     Bb/G

|-------------------------3-------|---------|------------------------------|
|---------------------------1-----|---------|----------------------------3-|
|-----------------------------0---|---------|--------------------------3---|
|------3--------3---------------3-|---------|-----5--------5---------3-----|
|----3--------3-------------------|---------|---5--------5-----------------|
|--1--------1--------1------------|---------|-3--------3--------3----------|

                      F2/G (no 3rd)
Tap to rate this tab
# A B C D E F G H I J K L M N O P Q R S T U V W X Y Z