Guitaretab - guitar tabs
Song name
# A B C D E F G H I J K L M N O P Q R S T U V W X Y Z

Lovesick Radio - Loser Of The Year tab

This is My First Tab, so gimme a break if its bad.
This is an amazing song.
and an Amazing Band.
I spent about a week learning this with my teacher. So it should be right.
It can be played with acoustic or Electric
I am the first person to make this tab.
 You won't be able to find it anywhere else.
_______________
Standard Tuning
PM= Palm Mute
x=Mute Note
h=Hammer on
~=let ring
__________
_________________________
Intro 0.00-0.13 (picking)

e|--------------------------------------|
B|--------------------------------------|
G|-----7-6h7--7-6-----0-----0-----------|
D|-0-0--0----8----5-5--4h5-0--4-5-0-----|
A|--------------------------------------|
E|--------------------------------------|


e|---------------------0----------|
B|---------------------0----------|
G|-----7-6h7--7-6------0----------|
D|-0-0--0----8-----5-5-5----------|
A|--------------------------------|
E|--------------------------------|
                                    1X (No Vocal)
0.13-0.48(picking)

e|--------------------------------------|
B|--------------------------------------|
G|-----7-6h7--7-6-----0-----0-----------|
D|-0-0--0----8----5-5--4h5-0--4-5-0-----|
A|--------------------------------------|
E|--------------------------------------|


e|---------------------0----------|
B|---------------------0----------|
G|-----7-6h7--7-6------0----------|
D|-0-0--0----8-----5-5-5----------|
A|--------------------------------|
E|--------------------------------|
                                   5X (With Vocal)
Pre-Chorus 0.48-1.03(strumming)
Chord: D

e|-------------------------|
B|-------------------------|
G|-7-7-7-7-7-7-7-7-7-7-7-7~|
D|-7-7-7-7-7-7-7-7-7-7-7-7~|
A|-5-5-5-5-5-5-5-5-5-5-5-5~|
E|-------------------------|
                            1X
Chorus  1.03-1.31(strumming)
Chords:D, A, G

e|-------------------------|
B|-------------------------|
G|-7-7-7-7-7---------------|
D|-7-7-7-7-7-7-5-5-5-5-5-5-|
A|-5-5-5-5-5-7-5-5-5-5-5-5-|
E|-----------5-3-3-3-3-3-3-|
                           3X
then the 4th time

e|----------------------------------|
B|----------------------------------|
G|-7-7-7-7-7------------------------|
D|-7-7-7-7-7-7-5-5-5-5-5-5--9~-7~-5~|
A|-5-5-5-5-5-7-5-5-5-5-5-5--9~-7~-5~|
E|-----------5-3-3-3-3-3-3--7~-5~-3~|
                                     1X
Intro 1.31-1.38(picking)

e|--------------------------------------|
B|--------------------------------------|
G|-----7-6h7--7-6-----0-----------------|
D|-0-0--0----8----5-5--4h5-0------------|
A|--------------------------------------|
E|--------------------------------------|
                                         1X Pause Then Verse
Verse w/ Drums 1.40-2.07(strumming and Palm Muting)
Chords: D, A

e|-------------------------|
B|-------------------------|
G|-7-7-7-7-7-7-7-7-7-7-7---|
D|-7-7-7-7-7-7-7-7-7-7-7-5-5-5-5-5-5-5-5-5-5-5|
A|-5-5-5-5-5-5-5-5-5-5-5-5-5-5-5-5-5-5-5-5-5-5|
E|-----------------------3-3-3-3-3-3-3-3-3-3-3|
PM ...........................................
                                              4X

Tail 2.07-2.23(Palm Muting and Strumming)
Chords: D, A. B, G

e|------------------------------------------------------|
B|------------------------------------------------------|
G|------------------------------------------------------|
D|-9-9-9-9-9--7~-5~--9-9-9-9-9--7~-5-5-5-5-5-5-5-5-5-5-5|
A|-9-9-9-9-9--7~-5~--9-9-9-9-9--7~-5-5-5-5-5-5-5-5-5-5-5|
E|-7-7-7-7-7--5~-3~--7-7-7-7-7--5~-3-3-3-3-3-3-3-3-3-3-3|
PM                                 ......................X1

Chorus 2.23-2.50(Strumming)
Chords: D, G, 

e|-------------------------|
B|-------------------------|
G|-7-7-7-7-7---------------|
D|-7-7-7-7-7-7-5-5-5-5-5-5-|
A|-5-5-5-5-5-7-5-5-5-5-5-5-|
E|-----------5-3-3-3-3-3-3-|
                           3X
then the 4th time

e|----------------------------------|
B|----------------------------------|
G|-7-7-7-7-7------------------------|
D|-7-7-7-7-7-7-5-5-5-5-5-5--9~-7~-5~|
A|-5-5-5-5-5-7-5-5-5-5-5-5--9~-7~-5~|
E|-----------5-3-3-3-3-3-3--7~-5~-3~|
                                     1X

Bridge/Climb 2.50-3.04(Octaves and Strumming)
Chords: B, C#,D,E,G,F#
[ Tab from: http://www.guitaretab.com/l/lovesick-radio/184856.html ]
e|---------------------------------------------------------------------|
B|---------------------------------------------------------------------|
G|-4--4--4--6--6--6--7--7--7--9--9--9--11-11-11-12---------------------|
D|-x--x--x--x--x--x--x--x--x--x--x--x--x--x--x--x---5~-----------------|
A|-2--2--2--4--4--4--5--5--5--7--7--7--9--9--9--10--5~-----------------|
E|--------------------------------------------------3~-----------------|
                                                                        2X
Finale 3.04-3.12 (Picking)

e|----------------------------------|
B|----------------------------------|
G|----------------------------------|
D|----------------------------------|
A|----------------------------------|
E|-0-3-2-0-2-0-3-2-0-2-0-3~~~-------|
                                     X1
Slow it down 3.12-3.25(Low Dynamics with vocals)
Chords: D, G

e|----------------------------------------|
B|----------------------------------------|
G|-7--7-----------------------------------|
D|-7--7--5--5---5~------------------------|
A|-5--5--5--5---5~------------------------|
E|-------3--3---3~------------------------|
                                           X1
Drum Roll

Pre-Outro Chorus 3.30-3.44(Slow Strumming)
Chords: D, G, B, A, B, C#,D,E,G,F#

e|----------------------------------------------------|
B|----------------------------------------------------|
G|-7~-------------------------------------------------|
D|-7~-7~-5~-9~-7~-5~----------------------------------|
A|-5~-7~-5~-9~-7~-5~----------------------------------|
E|----5~-3~-7~-5~-3~----------------------------------|

e|---------------------------------------------------------------------|
B|---------------------------------------------------------------------|
G|-4--4--4--6--6--6--7--7--7--9--9--9--11-11-11-12---------------------|
D|-x--x--x--x--x--x--x--x--x--x--x--x--x--x--x--x---5~-----------------|
A|-2--2--2--4--4--4--5--5--5--7--7--7--9--9--9--10--5~-----------------|
E|--------------------------------------------------3~-----------------|
                                                                        1X

Chorus Outro 3.44-4.11(Strumming)
Chords: D, A, G

e|--------------------------|
B|--------------------------|
G|-7-7-7-7-7----------------|
D|-7-7-7-7-7-7-5-5-5-5-5-5~-|
A|-5-5-5-5-5-7-5-5-5-5-5-5~-|
E|-----------5-3-3-3-3-3-3~-|
                            4X
___________
Song Layout

Intro 2X(no Vocals)
Intro 5X (with Vocals)
Pre-Chorus 1X
Chorus 4X (with Tail)
Intro 1X
Verse 4X
Tail 2X
Chorus 4X (with Tail)
Bridge/Climb 2x
Finale 2X
Slow Down 1X
Pre-Outro Chorus 1X
Chorus Outro 4X
_______
Lyrics:
____________________________________
Never Shoulda Walked you to the door,
Never shoulda told you those three words
You said you wanted less, I wanted more.
Isn't That the way it always works?

Why did I call you yesterday?
You never call me back.
I wonder if you wonder if I'm okay.

And I all I have left is your photograph
Scattered on my floor and Torn In Half

I hate myself for fallen in this far
Every minute wanna be where you are
Put my fist through the wall cuz its so damn clear.

Iím holdin on cuz its so hard to let go
Drivin by your house, Starin at your window
When you close your blinds, look down here.
and see the loser of the year.

So I hear you gone away to school
I saw your friend Stacy Out Last Night
I tried to play it off like it was cool
but it was killin me inside.

Thought about how we crossed that line,
Sneaking off so we could be alone.
and I'll be happy to ride it out on time

all I have left are memories
But you remind me, what will never be.

I hate myself for fallen in this far
Every minute wanna be where you are
Put my fist through the wall cuz its so damn clear.

IíM holdin on cuz its so hard to let go
Drivin by your house, Starin at your window
When you close your blinds, look down here.
and see the loser of the year.

Can I move On?

Should I give up?

Did I give too much?

Or not Enough?

you hate myself for fallen in this far..

Holdin on cuz its so hard to let go
outside your house standin at your window
before you close your blinds, Could you come down here
and kiss the loser of the year?

I hate myself for fallen in this far

and kiss the loser of the year

Iím just the loser of the year

I hate myself for fallen in this far

Iím just the loser of the year


I hate myself for fallen in this far

_______
The End
tips, info, corrections?
howd I do?
zzphreak@yahoo.com
colormeugly@ymail.com
add my band myspace.com/colormeugly1