Song name
# A B C D E F G H I J K L M N O P Q R S T U V W X Y Z

Lovex - Die A Little More tab

Guitar 1
]-------------------------------------[
]--2-2-5-5-4-4----2-5-5-4-------------[
]--------------4-6-------4------------[
]-------------------------------------[
]-------------------------------------[
]-------------------------------------[

Guitar 1
]-------------------------------------[
]--2-2-5-5-4-4----2-5-5-4-------------[
]--------------4-6-------4------------[
]-------------------------------------[
]-------------------------------------[
]-------------------------------------[

Guitar 2
]-------------------------------------[
]-------------------------------------[
]-------------------------------------[
]-------------------------------------[
]-------------------------------------[
]-0-0-0-0-0-0-0-0-0-0-0-0-0-0-0-0-0-0-[

Guitar 1
]-------------------------------------[
]--2-2-5-5-4-4----2-5-5-4-------------[
]--------------4-6-------4------------[
]-------------------------------------[
]-------------------------------------[
]-------------------------------------[

Guitar1
]-------------------------------------[
]--2-2-5-5-4-4----2-5-5-4-------------[
]--------------4-6-------4------------[
]-------------------------------------[
]-------------------------------------[
]-------------------------------------[
Tap to rate this tab
# A B C D E F G H I J K L M N O P Q R S T U V W X Y Z