Song name
# A B C D E F G H I J K L M N O P Q R S T U V W X Y Z

Lovin Spoonful - On The Road Again tab

This is my first tab so I did something pretty easy. It's a pretty simple lick from On 
Road Again.


---------7----------------7---|
-------7----9-7---------7-----|
---7h8--------------7h8-------|
------------------------------|
------------------------------|
------------------------------|

---------7--------------------|
-------7----9-7---------------|
---7h8------------9-7-6-------|
----------------9--------9----|
------------------------------|
------------------------------|


I do intend to make the full tab soon.
Tap to rate this tab
 
# A B C D E F G H I J K L M N O P Q R S T U V W X Y Z