Guitaretab - guitar tabs
Song name
# A B C D E F G H I J K L M N O P Q R S T U V W X Y Z

Low Millions - Statue tab

-------------------------------------------------------------------------------
			     Low Millions - Statue
-------------------------------------------------------------------------------
Tabbed by: Evan Prokup


Tuning: Standard

**This arrangement works well for a solo acoustic performance


Intro/Verse:

[Main Riff]

    F                           C               Em7              F
e|--0-------0-----0-----0-------0-----0-----0-----1-p-0----------0--|
B|--1-------1-----1-----1-------1-----1-----1---3-3---3----------1--|
G|--0h2---2-----2-----2-----2---0---0-----0-----0-0---0----------2--|
D|--3-----3-----3-----3-----3---2---2-----2-----0----------------3--|
A|--3-----3-----3-----3-----3---3---3-----3-----2----------------3--|
E|------------------------------------------------------------------|
    [                                                   ]      Hold last note


Pre-Chorus:
[ Tab from: http://www.guitaretab.com/l/low-millions/74814.html ]
    F   D
e|-------------------------------------------------------------------------------|
B|--1---3------------------------------------------------------------------------|
G|--2---2------------------------------------------------------------------------|
D|--3---0------------------------------------------------------------------------|
A|--3----------------------------------------------------------------------------|
E|-------------------------------------------------------------------------------|
   x4   x8


Chorus:

    C   F   Am  C   D   F
e|--------------------------------------------------------------------------------------|
B|--1---1---1---1---3---1---------------------------------------------------------------|
G|--0---2---2---0---2---2---------------------------------------------------------------|
D|--2---3---2---2---0---3---------------------------------------------------------------|
A|--3---3---0---3-------3---------------------------------------------------------------|
E|-----(1)-------------(1)--------------------------------------------------------------|


Bridge:

            C  F      (right after chorus 2)
        Dm  C  F
        Dm  C  F      (Dm:  xx0321)


End on: C

__________________

Order:

Main Riff: 5x (hold F after 5th time)
Main Riff: 3x

Prechorus: 1x
Chorus:    1x

Main Riff: 5x
Prechorus: 1x
Chorus:    1x

Bridge:    1x
Chorus:    3x
___________________
Related for Statue tab