Song name
# A B C D E F G H I J K L M N O P Q R S T U V W X Y Z

Low Roar - Friends Make Garbage Good Friends Take It Out tab

Part 1:
E|-------------------------------------------------------------------|
B|-----------------------------------------0---1---------------------|
G|---0---0---0-------0---0---0---0---0---0---0---0---0---0---0---0---|
D|-----0---0---0-0-0---0---0---0---0---0-----------0---0---0---0---0-|
A|--------------3-3-------------------------3-3-3-3------------------|
E|--3-3-3-3-3-3-----3-3-3-3-3-3-2-2-0-0-0-0---------3-3-3-3-3-3-3-3--|


Part 2:
E|---------------------------------------------------------------------------|
B|-----------------------------------------0---1-------------------------0---|
G|---0---0---0-------0---0---0---0---0---0---0---0---0---0---0---0---0-----0-|
D|-----0---0---0-0-0---0---0---0---0---0-----------0---0---0---0---0---0-----|
A|--------------3-3-------------------------3-3-3-3--------------------------|
E|--3-3-3-3-3-3-----3-3-3-3-3-3-2-2-0-0-0-0---------3-3-3-3-3-3-2-2-0-0-0-0--|


E|---------------------------|
B|-----1---------------------|
G|---0---0---0---0---0---0---|
D|---------0---0---0---0---0-|
A|--3-3-3-3------------------|
E|----------3-3-3-3-3-3-3-3--|


Part 3:
E|--------------------------------------------------------------*-------------|
B|-----------------------------------------0---1----------------*---------0---|
G|---0---0---0-------0---0---0---0---0---0---0---0---0---0---0--*-0---0-----0-|
D|-----0---0---0-0-0---0---0---0---0---0-----------0---0---0---0*---0---0-----|
A|--------------3-3-------------------------3-3-3-3-------------*-------------|
E|--3-3-3-3-3-3-----3-3-3-3-3-3-2-2-0-0-0-0---------3-3-3-3-3-3-*2-2-0-0-0-0--|


E|------------------*-------|
B|-----1------------*-------|
G|---0---0---0---0--*-0-----|
D|---------0---0---0*---0---|
A|--3-3-3-3---------*-------|
E|----------3-3-3-3-*3-3----|

If you listen to the song, you will notice it changes between part 1, 2 and 3. Here is 
the order, listen to the song to get used to it:
0:03 Part 2
0:26 Part 1
0:42 Part 2
1:04 Part 2
1:24 Part 1
1:39 Part 3 (play, then repeat the area between the asterisk once)
2:04 Part 2
2:27 Part 3 (play, then repeat the area between the asterisk once)
2:57 Part 3 (play, then repeat the area between the asterisk once)
3:27 Part 2
3:50 Part 2
4:12 Part 3 (play, then repeat the area between the asterisk three times)
4:56 Part 2

And that's it! Enjoy :)
Tap to rate this tab
 
# A B C D E F G H I J K L M N O P Q R S T U V W X Y Z