Song name
# A B C D E F G H I J K L M N O P Q R S T U V W X Y Z

Low Shoulder - Through The Trees tab

-------------------------------------------------------------------------------
			                 Through the Trees - Low Shoulder 
-------------------------------------------------------------------------------
Tabbed by: SuperCano
Email:jcano09@yahoo.com

Tuning: Standard

Intro (play 2x):
e|--------------------|-----------------|-----------------|-------------------|
B|--------------------|-----------------|-----------------|-------------------|
G|----2-2-2-2-2-2-2-2-|-0-0-0-0-0-0-0-0-|-----------------|-0-0-0-0-2-2-2-2---|
D|----3-3-3-3-3-3-3-3-|-3-3-3-3-3-3-3-3-|-3-3-3-3-3-3-3-3-|-3-3-3-3-3-3-3-3---|
A|----3-3-3-3-3-3-3-3-|-3-3-3-3-3-3-3-3-|-3-3-3-3-3-3-3-3-|-3-3-3-3-3-3-3-3---|
E|--------------------|-----------------|-1-1-1-1-1-1-1-1-|-------------------|

e|----------------------------------------------------------------------------|
B|----------------------------------------------------------------------------|
G|----3-3-3-3-3-3-3-3-|-2-2-2-2-2-2-2-2-|-0-0-0-0-0-0-0-0-|-2-2-2-2-3-3-3-3---|
D|----0-0-0-0-0-0-0-0-|-0-0-0-0-0-0-0-0-|-0-0-0-0-0-0-0-0-|-0-0-0-0-0-0-0-0---|
A|----x-x-x-x-x-x-x-x-|-x-x-x-x-x-x-x-x-|-x-x-x-x-x-x-x-x-|-x-x-x-x-x-x-x-x---|
E|----3-3-3-3-3-3-3-3-|-3-3-3-3-3-3-3-3-|-3-3-3-3-3-3-3-3-|-3-3-3-3-3-3-3-3---|

then just play the chords in eighth notes

F
All alone in an empty room 
                                 Gm
Nothing left but the memories of when I had my best friend 
F
And I don't know how we ended up here 
                                    Gm
I don't know but it's never been so clear 

We made a mistake dear 
A#            F                
And I see the broken glass in front of me 
A#         F
I see your shadow hanging over me 
         Gm       A#  (palm mute and build up)           
And your face can see 

Chorus:     
            F
through the trees 
       A#               Dm                   A#
I will find you, I will heal the ruins left inside you 
                      F
Cause I'm still here, breathing oh 
                A#
I'm still here, breathing oh
                Dm
I'm still here, breathing oh 
              A#
Until I'm set free, go quiet through the trees 

F
I remember how we used to talk 
                                           Gm
About the places we were going when we grew up 
                           F
And all that we were gonna find 

And I remember watching our seeds grow 
                                         Gm
And how you cried when you saw the first leaf show 
                               F
The love was pouring from your eyes 
           A#      F
So can you see the branches hanging over me 
        A#      F
Can you see the love you left inside of me 
       FM            Am              
And my face, can you see 

Chorus:
            F
through the trees 
            A#          Dm                   A#
I will find you, I will heal the ruins left inside you 
                      F
Cause I'm still here, breathing oh 
               A#
I'm still here, breathing oh 
               Dm
I'm still here, breathing oh 
              A#
Until I'm set free, go quiet through the trees

Bridge:
Dm 
C
Gm
Cause you're not coming back
A#
And you're not coming back
Dm       C
No ooooo No ooooo
Gm
No, you're not coming back
A#
You're not coming back

Then 

"Take my breath..."
e|---------------------|-------1-------------|--------5---------------5-|-1---|
B|-------1-------------|---------------------|------------------------6-|-3---|
G|---------------------|-----3--------3--3---|-----7--------7---7-----7-|-3---|
D|-----3--------3--3---|---3-----------3-----|---7------------7-------7-|-3---|
A|---3-----------3-----|-3-------------------|-5-------------------5--5-|-1---|
E|-1-----------------1-|-------------------1-|------------------------5-|-1---|

Then
                      F
Cause I'm still here, breathing now 
               A#
I'm still here, breathing now 
               Dm
I'm still here, breathing now 
              A#
I'm still here,  

then chorus 3x

last chord is A#


| /  slide up
| \  slide down
| h  hammer-on
| p  pull-off
| ~  vibrato
| +  harmonic
| x  Mute note
===============================================================================
Tap to rate this tab
 
# A B C D E F G H I J K L M N O P Q R S T U V W X Y Z