Song name
# A B C D E F G H I J K L M N O P Q R S T U V W X Y Z

Low Shoulder - Through The Trees chords

Highlighted       Show chord diagrams
Hey! so this is the chord for Through The Trees.
I found out this song from the movie Jennifer's Body.
Yeah! Megan Fox is hot.
Okay.
Anyways,capo on the second fret.
standard tuning.
Listen to the song if you wanna get the right strumming.
Enjoy :)

Chords used:

E = 022100
A = 002220
C#m = 000120 or 446654
F#m = 244222
B = 2244422


Intro:
first guitar strums- E (x32)- F#m (x32)- E (x32)- F#m (x32)- E(x16)

second guitar plucks-
e|-------------------------------------------------------------|
B|-------------------------------------------------------------|
G|-------------------------------------------------------------|
D|-6-----4-----2-----4-----6-----7-----6-----4-----6-----7-----|
A|-------------------------------------------------------------|
E|-------------------------------------------------------------|

e|-------------------------------------------------------------|
B|-------------------------------------------------------------|
G|-------------------------------------------------------------|
D|-6-----4-----2-----4-----6-----7-----6-----4-----6-----7-----|
A|-------------------------------------------------------------|
E|-------------------------------------------------------------|


e|--------|
B|--------|
G|--------|
D|---6~---|
A|--------|
E|--------|

Verse:

E
All alone in an empty room
                                 F#m
Nothing left but the memories of when 
                  E
I had my best friend
E
And I don't know how we ended up here 
                                     F#m
I don't know but it's never been so clear
                     E
We made a mistake, dear
      A
And I see
E
The broken glass in front of me
  A
I see
E
Your shadow hanging over me
         F#m          A
And your face, I can see...


Chorus:

              E
Through the trees
        A     
I will find you
       C#m
I will heal
                A  
The ruins left inside you
                     E
Cuz I'm still here breathing now
                 A
I'm still here breathing now
                C#m  
I'm still here breathing now 
                A~
Until I'm set free

Go quiet through the trees

E

Verse 2:

E
And I remember how we used to talk
                                          F#m
About the places we would go when we grew up
                            E
And all that we were gonna find
E        
And I remember watching our seeds grow
                                         F#m
And how you cried when you saw the first leaf show
                                E
The love was pouring from your eyes
            A
So can you see
E
The branches hanging over me
        A
Can you see
E
The love you left inside of me
       F#m           A    
And my face,can you see...

Chorus:

              E
Through the trees
        A     
I will find you
       C#m
I will heal
                A  
The ruins left inside you
                     E
Cuz I'm still here breathing now
                 A
I'm still here breathing now
                C#m  
I'm still here breathing now 
                A~
Until I'm set free

Go quiet through the trees

Bridge: 
Second guitar plucks-

e|--0------------------------|
B|-----4--2--0---------------|
G|--------------2--1---------|
D|--------------------4--2---|
A|---------------------------|
E|---------------------------|


   C#m
Cuz you're not coming back
    B
And you're not coming back
E       A
No-oo.. No-oo.. No
 C#m  
You're not coming back...  
  B
You're not coming back...

e|-------------------------------------------------------4------4--4--5|
B|-----------------------------------5--------5------------5----5--5--5|
G|----------2--1-------1----------------6-----6--------6-----6--6--6--6|
D|-------2-------2-----2----------7--------7--7------6----------6--6--7|
A|----2-------------2--2-------7--------------7----4------------4--4--7|
E|--0------------------0----5-----------------5-----------------------5|
 
Take my breath as your own
Take my eyes to guide you home

                     E
Cuz I'm still here breathing now
                 A
I'm still here breathing now
                C#m  
I'm still here breathing now 
                A~
Until I'm set free

Go quiet through the trees (x3)


  C#m
Cuz you're not coming back
    B
And you're not coming back
E       A
No-oo.. No-oo.. No
 C#m  
You're not coming back...  
  B
You're not coming back...
Tap to rate this tab
# A B C D E F G H I J K L M N O P Q R S T U V W X Y Z