Song name
# A B C D E F G H I J K L M N O P Q R S T U V W X Y Z

Low - Laser Beam tab

Artist: Low
Song: Laser beam
Album: Things we lost in fire (2002)
____________________________________

Tuning: D A D G B e

Verse-                           variation-
|--------------|                 |-----------------|
|--------------|                 |-----------------|
|-----------2--|                 |--------------2--|
|--------0-----| x11             |--------0--------|
|-----0--------|                 |-----0-----------|
|--0-----------|                 |--0--------0-----|


Chorus-
|---------------------------2----------------2-----------------------------|
|------------------------3-------------3----------------2----------------2-|
|----------------2-----------------------------------2-------------2-------|
|----------0----------4----------4----------------2----------2-------------|
|----0-------------2----------2-----2-----2----0----------0-----0-----0----|
|-0-----0-----0------------------------------------------------------------|

__________
verse x11
chorus x1
verse x11
chorus x1
verse x6
Tap to rate this tab
 
# A B C D E F G H I J K L M N O P Q R S T U V W X Y Z