Song name
# A B C D E F G H I J K L M N O P Q R S T U V W X Y Z

Low - Sunflower tab

----------------------------------------------------------------------------
			     Low - Sunflower
----------------------------------------------------------------------------
Tabbed by: Pat Wisdom
Email: patwisdom@hotmail.com

Tuning: Standard

e|-------------------------------------------------------------------------|
B|------8-8-8-8-8-8-8-8--8--7-7-7-7-7-7-7-7--7--5-5-5-5-5-5-5-5-5--3-3-3-3|
G|------0-0-0-0-0-0-0-0--0--0-0-0-0-0-0-0-0--0--0-0-0-0-0-0-0-0--0--0-0-0-0|
D|------5-5-5-5-5-5-5-5--5--4-4-4-4-4-4-4-4--4--2-2-2-2-2-2-2-2--2--0-0-0-0|
A|------7-7-7-7-7-7-7-7--7--5-5-5-5-5-5-5-5--5--3-3-3-3-3-3-3-3--3--2-2-2-2|
E|---0---------------------------------------------------------------------|

e|-------------------------------------------------------------------------|
B|-3-3-3-3--33-------------------------------------------------------------|
G|-0-0-0-0--00-------------------------------------------------------------|
D|-0-0-0-0--00-------------------------------------------------------------|
A|-2-2-2-2--22-------------------------------------------------------------|
E|-------------------------------------------------------------------------|

Repeat.
============================================================================
Tap to rate this tab
 
# A B C D E F G H I J K L M N O P Q R S T U V W X Y Z