Song name
# A B C D E F G H I J K L M N O P Q R S T U V W X Y Z

Low - Down tab

Low Ė Down (I Could Live In Hope [1994])

Tuning: DGDGAD

Chords: Ebmaj7: 001010 Dsus: 020200 Gmin: x00010 Gsus: x00000

This song revolves primarily around an arpeggio/motif type thing that alternates between
the Ebmaj7 and Dsus chords. This pattern is repeated (probably with some minor
alterations that donít really matter) throughout both the verses (ĎI guess the secretís
out...í etc.) and the choruses (ĎOut of control...í). A build up occurs at 2:05 which is
just a
crescendo strummed on Gmin which then decrescendos into Gsus and then fades into an
improvised solo which Iím not going to tab. The same build up occurs again at 4:28, fading
again into a solo which is played until the end of the song (build up occurs again at 
6:22). Refer to track for rhythm/timing etc. Be sure to use a shitload of reverb to get the
tone right.

Arpeggio/motif:

d|----------0--------------------0-----------|
A|-----1----------1--------0-----------0-----|
G|-------------------------------------------|
D|--1-----1----1-----1--------0-----0-----0--|
A|----------------------2--------------------|
D|-------------------------------------------|

Just for the heck of it, Iíve also tabbed the bass-line for this song:

G|---------------------------------|
D|-----8-----8---------------------|
A|--6-----6-----6---5--0--5--0--5--|
E|---------------------------------|

Build up:

G|-----------------------------------|
D|-----------------------------------|
A|-----------------------------------|
E|--3-3-3-3-3-3-3-3-3-3-3-3-3-3-3-3--|
Tap to rate this tab
# A B C D E F G H I J K L M N O P Q R S T U V W X Y Z