Song name
# A B C D E F G H I J K L M N O P Q R S T U V W X Y Z

Low - Hatchet tab

This is mostly played on a bass in the actual song, but I think it sounds awesome on guitar too. 


 1 + 2 + 3 + 4 +  1 + 2 + 3 + 4 +  1 + 2 + 3 + 4 +  1 + 2 + 3 + 4 + 
|----------------|----------------|----------------|----------------|
|----------------|----------------|----------------|----------------|
|----------------|----------------|----------------|----------------|
|5-------4-------|2-------2-0-2/5-|7-------------7/|10--------------|
|5-------4-------|2-------2-0-2/5-|7-------------7/|10--------------|
|5-------4-------|222222222-0-2/5-|7-------------7/|10--------------|

Sometimes there is a slide from the 10 back down to the 5, but other than that this is pretty
much the whole song. For the key change at the very end, when he sings "Stones", play this:

 1 + 2 + 3 + 4 +  1 + 2 + 3 + 4 +  1 + 2 + 3 + 4 + 
|----------------|----------------|----------------|
|----------------|----------------|----------------|
|----------------|----------------|----------------|
|13--------------|------------5/--|17--------------|
|13--------------|------------5/--|17--------------|
|13--------------|------------5/--|17--------------|
Tap to rate this tab
 
# A B C D E F G H I J K L M N O P Q R S T U V W X Y Z