Song name
# A B C D E F G H I J K L M N O P Q R S T U V W X Y Z

Low - La La La Song tab

Low - La La La Song (Transcription by Hanoihancock)
DGDGAD

  All These Years You've Been Speaking Without Breathing
  Spinning Closer To The Sun
D |--2--2--|--0--0----|--2--2----|--0--0----||
A |--2--4--|--0--2----|--2--4----|--0--3----||
G |--4--2--|--2--0----|--4--2----|--2--2----||
D |--2--2--|--0--0----|--2--2----|--0--0----||
G |--4--2--|--2--0----|--4--2----|--2--2----||
D |--2--X--|--0--X----|--2--X----|--0--0----||

  Had Your Way With An Unsuspecting Public
  Little Threads Are All It Takes
D |--2--2--|--0--0----|--2--2----|--0--0----||
A |--2--4--|--0--2----|--2--4----|--0--3----||
G |--4--2--|--2--0----|--4--2----|--2--2----||
D |--2--2--|--0--0----|--2--2----|--0--0----||
G |--4--2--|--2--0----|--4--2----|--2--2----||
D |--2--X--|--0--X----|--2--X----|--0--0----||

  La La La,  La La La, La La La La La La
D |--2--2--|--0--0----|--2--2----|--0--0----||
A |--2--4--|--0--2----|--2--4----|--0--3----||
G |--4--2--|--2--0----|--4--2----|--2--2----||
D |--2--2--|--0--0----|--2--2----|--0--0----||
G |--4--2--|--2--0----|--4--2----|--2--2----||
D |--2--X--|--0--X----|--2--X----|--0--0----||

  I Have Learned All Your Secrets So Familar 
  I Know Where You Lay Your Head 
D |--2--2--|--0--0----|--2--2----|--0--0----||
A |--2--4--|--0--2----|--2--4----|--0--3----||
G |--4--2--|--2--0----|--4--2----|--2--2----||
D |--2--2--|--0--0----|--2--2----|--0--0----||
G |--4--2--|--2--0----|--4--2----|--2--2----||
D |--2--X--|--0--X----|--2--X----|--0--0----||

  Fear Of God And A Disapointing Father
  Holds The Hand Around Your Neck
D |--2--2--|--0--0----|--2--2----|--0--0----||
A |--2--4--|--0--2----|--2--4----|--0--3----||
G |--4--2--|--2--0----|--4--2----|--2--2----||
D |--2--2--|--0--0----|--2--2----|--0--0----||
G |--4--2--|--2--0----|--4--2----|--2--2----||
D |--2--X--|--0--X----|--2--X----|--0--0----||

  La La La, La La La,  La La La La La La
D |--2--2--|--0--0----|--2--2----|--0--0----||
A |--2--4--|--0--2----|--2--4----|--0--3----||
G |--4--2--|--2--0----|--4--2----|--2--2----||
D |--2--2--|--0--0----|--2--2----|--0--0----||
G |--4--2--|--2--0----|--4--2----|--2--2----||
D |--2--X--|--0--X----|--2--X----|--0--0----||









  Sometimes I Could Just Choke Myself With Laughter 
  Sometimes Everything's So True
D |--2--2--|--0--0----|--2--2----|--0--0----||
A |--2--4--|--0--2----|--2--4----|--0--3----||
G |--4--2--|--2--0----|--4--2----|--2--2----||
D |--2--2--|--0--0----|--2--2----|--0--0----||
G |--4--2--|--2--0----|--4--2----|--2--2----||
D |--2--X--|--0--X----|--2--X----|--0--0----||

  So When You Come Down From Your Death Defying Labors
  I'll Still Be In Love With You
D |--2--2--|--0--0----|--2--2----|--0--0----||
A |--2--4--|--0--2----|--2--4----|--0--3----||
G |--4--2--|--2--0----|--4--2----|--2--2----||
D |--2--2--|--0--0----|--2--2----|--0--0----||
G |--4--2--|--2--0----|--4--2----|--2--2----||
D |--2--X--|--0--X----|--2--X----|--0--0----||

  La La La, La La La,  La La La La La La 
D |--2--2--|--0--0----|--2--2----|--0--0----||
A |--2--4--|--0--2----|--2--4----|--0--3----||
G |--4--2--|--2--0----|--4--2----|--2--2----||
D |--2--2--|--0--0----|--2--2----|--0--0----||
G |--4--2--|--2--0----|--4--2----|--2--2----||
D |--2--X--|--0--X----|--2--X----|--0--0----||

  La La La, La La La,  La La La La La La
D |--2--2--|--0--0----|--2--2----|--0--0----||
A |--2--4--|--0--2----|--2--4----|--0--3----||
G |--4--2--|--2--0----|--4--2----|--2--2----||
D |--2--2--|--0--0----|--2--2----|--0--0----||
G |--4--2--|--2--0----|--4--2----|--2--2----||
D |--2--X--|--0--X----|--2--X----|--0--0----||
Tap to rate this tab
 
# A B C D E F G H I J K L M N O P Q R S T U V W X Y Z