Song name
# A B C D E F G H I J K L M N O P Q R S T U V W X Y Z

Low - Starfire tab

Low - Starfire (Transcription by Hanoihancock)
DGDGAD

  We'll call it Starfire who will know? I Want a Station of my own
D |--3--------------|--1--------------|--3--------------|--1--------------||
A |--5--------------|--1--------------|--5--------------|--1--------------||
G |--3--------------|--3--------------|--3--------------|--3--------------||
D |--3--------------|--1--------------|--3--------------|--1--------------||
G |--3--------------|--3--------------|--3--------------|--3--------------||
D |--X--------------|--1--------------|--X--------------|--1--------------||
                      I have a tool       I have my rules
D |--3--------------|--1--------------|--3--------------|--1--------------||
A |--5--------------|--1--------------|--5--------------|--1--------------||
G |--3--------------|--3--------------|--3--------------|--3--------------||
D |--3--------------|--1--------------|--3--------------|--1--------------||
G |--3--------------|--3--------------|--3--------------|--3--------------||
D |--X--------------|--1--------------|--X--------------|--1--------------||
  I'll load the back and you can drive.  Broken bodies all the time.
D |--3--------------|--1--------------|--3--------------|--1--------------||
A |--5--------------|--1--------------|--5--------------|--1--------------||
G |--3--------------|--3--------------|--3--------------|--3--------------||
D |--3--------------|--1--------------|--3--------------|--1--------------||
G |--3--------------|--3--------------|--3--------------|--3--------------||
D |--X--------------|--1--------------|--X--------------|--1--------------||
            Let's take a ride.                 Starfire tonight.  
D |--3--------------|--1--------------|--3--------------|--1--------------||
A |--5--------------|--1--------------|--5--------------|--1--------------||
G |--3--------------|--3--------------|--3--------------|--3--------------||
D |--3--------------|--1--------------|--3--------------|--1--------------||
G |--3--------------|--3--------------|--3--------------|--3--------------||
D |--X--------------|--1--------------|--X--------------|--1--------------||

                        Ten thousand miles away...
D |--5--------------|--3--------------|--1--------------|--1--------------||
A |--5--------------|--5--------------|--1--------------|--1--------------||
G |--7--------------|--3--------------|--3--------------|--3--------------||
D |--5--------------|--3--------------|--1--------------|--1--------------||
G |--7--------------|--3--------------|--3--------------|--3--------------||
D |--5--------------|--X--------------|--1--------------|--1--------------||

                                      Away
  La La La La x2    La La La La x2    La La La La x2    La La La La x2  
D |--3--------------|--1--------------|--3--------------|--1--------------||
A |--5--------------|--1--------------|--5--------------|--1--------------||
G |--3--------------|--3--------------|--3--------------|--3--------------||
D |--3--------------|--1--------------|--3--------------|--1--------------||
G |--3--------------|--3--------------|--3--------------|--3--------------||
D |--X--------------|--1--------------|--X--------------|--1--------------||

     La La La La La La La                La La La La Laaaaaaa  Laaaaaa
  La La La La x2    La La La La x2    La La La La x2    La La La La x2  
D |--3--------------|--1--------------|--3--------------|--1---------|--3-||
A |--5--------------|--1--------------|--5--------------|--1---------|--5-||
G |--3--------------|--3--------------|--3--------------|--3---------|--3-||
D |--3--------------|--1--------------|--3--------------|--1---------|--3-||
G |--3--------------|--3--------------|--3--------------|--3---------|--3-||
D |--X--------------|--1--------------|--X--------------|--1---------|--X-||
Tap to rate this tab
 
# A B C D E F G H I J K L M N O P Q R S T U V W X Y Z