Guitaretab - guitar tabs
Song name
# A B C D E F G H I J K L M N O P Q R S T U V W X Y Z

Low - Will The Night tab

LOW - Will The Night? (Transcription by Hanoihancock)
DGDGAD

  Will the night last forever?          Stay by my side. 
D |--4--------------|--1--------------|--0--------------|--4--------------||
A |--6--------------|--2--------------|--2--------------|--4--------------||
G |--4--------------|--1--------------|--0--------------|--6--------------||
D |--4--------------|--1--------------|--0--------------|--4--------------||
G |--4--------------|--1--------------|--0--------------|--6--------------||
D |--X--------------|--X--------------|--X--------------|--4--------------||

  'Cause tonight      together         would be          divine. 
D |--4--------------|--1--------------|--2--------------|--4--------------||
A |--6--------------|--2--------------|--2--------------|--4--------------||
G |--4--------------|--1--------------|--4--------------|--6--------------||
D |--4--------------|--1--------------|--2--------------|--4--------------||
G |--4--------------|--1--------------|--4--------------|--6--------------||
D |--X--------------|--X--------------|--2--------------|--4--------------||
[ Tab from: http://www.guitaretab.com/l/low/66546.html ]
  But once         it's gone        your face         to hide
D |--4--------------|--1--------------|--0--------------|--4--------------||
A |--6--------------|--2--------------|--2--------------|--4--------------||
G |--4--------------|--1--------------|--0--------------|--6--------------||
D |--4--------------|--1--------------|--0--------------|--4--------------||
G |--4--------------|--1--------------|--0--------------|--6--------------||
D |--X--------------|--X--------------|--X--------------|--4--------------||

  against         the sun          the moon            am I
D |--4--------------|--1--------------|--2--------------|--4--------------||
A |--6--------------|--2--------------|--2--------------|--4--------------||
G |--4--------------|--1--------------|--4--------------|--6--------------||
D |--4--------------|--1--------------|--2--------------|--4--------------||
G |--4--------------|--1--------------|--4--------------|--6--------------||
D |--X--------------|--X--------------|--2--------------|--4--------------||

  On the         other                 side            so blind  
D |--4--------------|--4--------------|--1--------------|--2--------------||
A |--6--------------|--4--------------|--2--------------|--2--------------||
G |--4--------------|--6--------------|--1--------------|--4--------------||
D |--4--------------|--4--------------|--1--------------|--2--------------||
G |--4--------------|--6--------------|--1--------------|--4--------------||
D |--X--------------|--4--------------|--X--------------|--2--------------||

  so long            goodbye           goodnight
D |--4--------------|--4--------------|--2--------------|--4--------------||
A |--6--------------|--4--------------|--2--------------|--6--------------||
G |--4--------------|--6--------------|--4--------------|--4--------------||
D |--4--------------|--4--------------|--2--------------|--4--------------||
G |--4--------------|--6--------------|--4--------------|--4--------------||
D |--X--------------|--4--------------|--2--------------|--X--------------||
Related for Will The Night tab
Advertisement will be closed in 10 seconds