Song name
# A B C D E F G H I J K L M N O P Q R S T U V W X Y Z

Lowbuz - On The Ledge tab

Lowbuz  On the ledge
Tuning  Drop C (DAFCGC)

I think that 1 guitar play PM(Palm Mute) part
2 guitar play without palm mute!

r - Release bend
. . . . - Palm Mute
/ - slide up
\ - slide down
h - hammer on
p - pull off


Intro  (Repeat 2 times)
D-------------------------------------------------------------|
A-------------------------------------------------------------|
F-------------------------------------------------------------|
C-1--1--1--1-----8-----------11--11---6--6--------------------| (x3)
G-1--1--1--1--------------------------------------------------|
C-1--1--1--1--------1--1--1---------1-------------------------|
  .  .  .  .        .  .  .         .

D-----------------------------------------------------------|
A-----------------------------------------------------------|
F-----------------------------------------------------------|
C--1--1--1--1----------8---------4---2----------------------| (x1)
G--1--1--1--1--------------------4---2----------------------|
C--1--1--1--1---------------1----4---2----------------------|
   .  .  .  .               .


Verse

D-------------------------------------------------------------|
A-------------------------------------------------------------|
F-------------------------------------------------------------|
C-1--1--1--1-----8--------------11--11---6--6-----------------| (x3)
G-1--1--1--1--------------------------------------------------|
C-1--1--1--1--------1--1--1------------1----------------------|

PM ................................................................

D-----------------------------------------------------------|
A-----------------------------------------------------------|
F-----------------------------------------------------------|
C--1--1--1--1---------8----------4---2----------------------| (x1)
G--1--1--1--1--------------------4---2----------------------|
C--1--1--1--1---------------1----4---2----------------------|

PM..............................


Chorus

D----------------------------------------------------------------------------|
A----------------------------------------------------------------------------|
F----------------------------------------------------------------------------|
C-1-1----4--4----6------------1--1-----4-4-4-4--9-9--9--9--8-----------------|
G-1-1----4--4----6--(x2)------1--1-----4-4-4-4--9-9--9--9--8--(x1)-----------|
C-1-1----4--4----6------------1--1-----4-4-4-4--9-9--9--9--8-----------------|

Bridge
1Guitar
D----------------------------------------------------------------------------|
A----------------------------------------------------------------------------|
F----------------------------------------------------------------------------|
C---4-4-4-4------4-4-4-4------4-4-4-4-4-4-4-4-----4-4-4-4------4--2----------|(x2)
G---4-4-4-4--4---4-4-4-4--4---4-4-4-4-4-4-4-4--4--4-4-4-4------4--2----------|
C---4-4-4-4------4-4-4-4------4-4-4-4-4-4-4-4-----4-4-4-4------4--2----------|
    . . . .      . . . .      . . . . . . . .     . . . .

2 guitar

D----------------------------------------------------------------------------|
A-12r--14-11-14-11-14-11-14---11---------------------------------------------|
F-----------------------------------11-11h13-11h13-11h13-11h13--15-18r-------|(x1)
C----------------------------------------------------------------------------|
G----------------------------------------------------------------------------|
C----------------------------------------------------------------------------|

Outro solo
It's real hard part to tab it, i tabbed it as I can!
2:49 - 2:52
D---------------------------------------------------------------------------|
A---------------------------------------------------------------------------|
F---/14--13h14-13--11--13--9--11b-------------------------------------------|
C---------------------------------------------------------------------------|
G---------------------------------------------------------------------------|
C---------------------------------------------------------------------------|

2:52 - 2:54
D---------------------------------------------------------------------------|
A--------(Please check amount of strokes here!)-----------------------------|
F15-18p15h18p15h18p15h18p15h18p15h18p15h18p15h18p15-------------------------|
C---------------------------------------------------------------------------|
G---------------------------------------------------------------------------|
C---------------------------------------------------------------------------|
2:54 - 2:57
D----------------------------------------------------------------------------|
A----------------------------------------------------------------------------|
F--19b------19h20-20-20-19-18-19b-19b-19b------------------------------------|
C----------------------------------------------------------------------------|
G----------------------------------------------------------------------------|
C----------------------------------------------------------------------------|

2:58 - 3:03
D-------------------------------------------------------------------------------|
A-/20b-14-/19h20p19h20p19-18p17h18p17-19/16-17-16-14h15-14-15-16-17p16h17p17/14-|b
F-------------------------------------------------------------------------------|
C-------------------------------------------------------------------------------|
G-------------------------------------------------------------------------------|
C-------------------------------------------------------------------------------|

3:03 - 3:10  I'm not sure about this part
(It's only my improvisation!)  :)))
D----------------------------------------------------------------------------|
A-/-14-15-14-12-14h15///\\\\-14-16///----------------------------------------|
F----------------------------------------------------(slide )----------------|
C----------------------------------------------------------------------------|
G----------------------------------------------------------------------------|
C----------------------------------------------------------------------------|


Lyrics:
If I could turn back this time
You would see what's inside
Your eyes to me are like a mirror
It swirls inside of my mind
There's just so much on the line
Is honesty always the answer now?

Chorus:
I'm on the ledge
Can't fall down
See me on the edge
I'm on the ledge
Breaking down
See me on the edge

I know that I just can't hide
I gamble just let it ride
It's much too hard to turn away
It's all such a surprise
I can tell it all from your eyes
It's all I can do to keep my head up now.

Chorus:
I'm on the ledge
Can't fall down
See me on the edge
I'm on the ledge
Breaking down
See me on the edge

I'm on the ...I'm on the...I'm on the...LEDGE

I tabbed it as I can!If you can help me please write your reccomend in comments!!!
Please rate this tab!


http://www.lowbuz.com
Tap to rate this tab
# A B C D E F G H I J K L M N O P Q R S T U V W X Y Z