Song name
# A B C D E F G H I J K L M N O P Q R S T U V W X Y Z

Lower Class Brats - New Seditionaries tab

This is what I was able to figure out after seeing them live and watching their
play this song.  I didn't do any of the timing so you'll have to figure that out 
and
alot of palm mutting in this song that I didn't mark, but its there.  Just listen to the 
and you'll pick it up pretty quick.  I couldn't/didn't try to figure out the solo so
you want to help me out with that.  It not the best tab but its the only tab on the 
i could find for this song.  Im not sure it its 100% right so help me correct it.

Song: New Seditionaries
Artist: Lower Class Brats
Album: New Seditionaries

Into:

E|-----------------------------------------------------------------|
B|-----------------------------------------------------------------|
G|-----------------------------------------------------------------|
D|------9-------9-------9---11---9---------------------------------|
A|--9---7---9---7---9---7----9---7---------------------------------|
E|--7-------7-------7----------------------------------------------|

Verse:

E|-----------------------------------------------------------------|
B|-----------------------------------------------------------------|
G|-----------------------------------------------------------------|
D|------9-------9-------9---11---9---------------------------------|
A|--9---7---9---7---9---7----9---7---------------------------------|
E|--7-------7-------7----------------------------------------------|

Chorus:

E|-----------------------------------------------------------------|
B|-----------------------------------------------------------------|
G|-----------------------------------------------------------------|
D|--11---9---11---9------------------------------------------------|
A|---9---7----9---7------------------------------------------------|
E|-----------------------------------------------------------------|

Solo:
Tap to rate this tab
 
# A B C D E F G H I J K L M N O P Q R S T U V W X Y Z