Song name
# A B C D E F G H I J K L M N O P Q R S T U V W X Y Z

Lower Class Brats - Do It Again tab

Intro:
e-------------------------------|
B-------------------------------|
G-------------------------------|
D---------9-9-9-------7-7-------|
A---7-7-7-7-7-7-5-5-5-5-5-7-7---|
E---5-5-5-------3-3-3-----5-5---|

Chorus: (Fast Up and Down Strokes)
e------------------------------------------|
B------------------------------------------|
G------------------------------------------|
D---7-----------------7-----------9--------|
A---5(x16)-7-----5----5(x16)-7----7(x8)----|
E----------5(x8)-3(x8)-------5(x8)---------|

Verse: (Fast Up and Down Strokes)
e------------------------------------------|
B------------------------------------------|
G------------------------------------------|
D-----------9-9-----------7-7--------------|
A---7-7-----7-7(x6)-5-----5-5-7-7----------|
E---5-5(x6)---------3(x6)-----5-5----------|


Intro x2
Verse x4
Chorus x2
Verse x2
Chorus x2
Verse x2
Intro x2
Chorus x4

Listen to the track for exact timing but this is the correct tab.
Tap to rate this tab
# A B C D E F G H I J K L M N O P Q R S T U V W X Y Z