Guitaretab - guitar tabs
Song name
# A B C D E F G H I J K L M N O P Q R S T U V W X Y Z

Lower Class Brats - Just Like Clockwork tab

Just Like Clockwork Ė L.C.B.


Simple song with a cool solo, I love it. If you play bass the intro is worth learning 
Enjoy...


Intro/Chorus

Iíll give you the chords you can figure out the rhythm from the song (its basically 1,2,3&4)

|------------------------------------------------------------------------------------------|
|------------------------------------------------------------------------------------------|
|-----9--------7------------------------------------9-------7-------14--------12--14--12---|
|-----9--------7---------7---------5--7--5----------9-------7-------14--------12--14--12---|
|-----7--------5---------7---------5--7--5----------7-------5-------12--------10--12--10---|
|------------------------5---------3--5--3-------------------------------------------------|


Verse

Again the chords, donít forget the palm muting on the A

|--------------------------------------------|
|--------------------------------------------|
|-----9-----5--------------------------------|
|-----9-----5-----7--------------------------|
|-----7-----3-----7--------------------------|
|-----------------5--------------------------|


Solo (the fun part ☺ )

|-------------------------12------------------------------------------------|
|---10b------10b----12---------10----------------------10-------------------|
|-------------------------------------12----9----12-----------12------------|
|---------------------------------------------------------------------------|
|---------------------------------------------------------------------------|
|---------------------------------------------------------------------------|


|-----------------------------------------------------------------------------------------|
|--------------------10b------------------------------------------------------------------|
|-------9----12-------------------12----9----12-----12----9----12----9----12--9-----------|
|-----------------------------------------------------------------------------------------|
|-----------------------------------------------------------------------------------------|
|-----------------------------------------------------------------------------------------|
[ Tab from: http://www.guitaretab.com/l/lower-class-brats/51543.html ]
|-----------------------------------------------------------------------------------------------------|
|-----------------------------------------------------------------------------------------------------|
|-12---9---12---9---12--9-----12---9---12---9---12--9----10-10-10-10-10-------------------------------|
|--------------------------------------------------------12b12b12b12b12b------------------------------|
|-----------------------------------------------------------------------------------------------------|
|-----------------------------------------------------------------------------------------------------|


|-------15p12-------------15p12-----------15p12--15p12--15p12------------------|
|-----------------15p12------------15p12----------------------15p12------------|
|------------------------------------------------------------------------------|
|------------------------------------------------------------------------------|
|------------------------------------------------------------------------------|
|------------------------------------------------------------------------------|


|-------15p12------------15p12-------------15p12--15p12--15p12-----------------|
|----------------15p12------------15p12--------------------------15p12---------|
|------------------------------------------------------------------------------|
|------------------------------------------------------------------------------|
|------------------------------------------------------------------------------|
|------------------------------------------------------------------------------|


|-------15p12------------15p12-------------15p12--15p12--15p12-----------------|
|----------------15p12-----------15p12---------------------------15p12---------|
|------------------------------------------------------------------------------|
|------------------------------------------------------------------------------|
|------------------------------------------------------------------------------|
|------------------------------------------------------------------------------|


|-------15p12-------------15p12------------------------------------------------|
|----------------15p12------------15p12---------18b----------------------------|
|------------------------------------------------------------------------------|
|------------------------------------------------------------------------------|
|------------------------------------------------------------------------------|
|------------------------------------------------------------------------------|


Hope this helps I think its perfect although Iím not sure about the unison
 bend in the solo it could be 9 and 12 rather than 10 and 12.
Any suggestions let me know, this is my first tab and I would like feedback.

Thanks to Steve for his previous work on the solo it gave me somewhere to start.
Related for Just Like Clockwork tab