Song name
# A B C D E F G H I J K L M N O P Q R S T U V W X Y Z

Lower Class Brats - Who Writes Your Rules tab

                              Lower Class Brats
                             Who Rights Your Rules

Intro
e|-------------------------------------------------------------------------------------|
B|----------------------7--------------------9-----------------------------------------|
G|-8--------------------7--------------------9--------------------4--------------------|
D|-9--------------------7--------------------9--------------------5--------------------|
A|-9--------------------5-(5)(5)(5)(5)(5)(5)-7-(7)(7)(7)(7)(7)(7)-5--------------------|
E|-7-(7)(7)(7)(7)(7)(7)-------------------------------------------3-(3)(4)(4)(5)(5)(7)-|

Verse
e|-------------------------------------|
B|----------77777777-99999999----------|
G|-88888888-77777777-99999999-44444444-|
D|-99999999-77777777-99999999-55555555-|
A|-99999999-55555555-77777777-55555555-|
E|-77777777-------------------33333333-|
pm ........ ........ ........ ........

Chorus
e|---------------------------------------|
B|----------7-777777-9-999999-12-11-10-9-|
G|-8-888888-7-777777-9-999999-12-11-10-9-|
D|-9-999999-7-777777-9-999999-12-11-10-9-|
A|-9-999999-5-555555-7-777777-10-9--8--7-|
E|-7-777777------------------------------|

ORDER
Intro(1)
Verse(4)
Chorus(2)
Verse(4)
Chorus(2)
Intro(4)
Chorus(2)
Verse(4)
Chorus(4)

KEY
pm = Palm Mute
() = Harmonic
Tap to rate this tab
# A B C D E F G H I J K L M N O P Q R S T U V W X Y Z