Song name
# A B C D E F G H I J K L M N O P Q R S T U V W X Y Z

Lower Class Brats - Just Like Clock Work tab

e|----------------------------------------------------------|
b|---16---------16------------------------------------------|
g|---15b---15b------15b---13-------13-13------13--15--13----|
d|-----------------------------15----------15------------15-|
a|----------------------------------------------------------|
e|----------------------------------------------------------|

e|------------------------------------------------------------------|
b|------------------------------------------------------------------|
g|------13---13---13---13---13---13---13---13---13---15-15-15-15-15-|
d|---15---15---15---15---15---15---15---15---15---------------------|
a|------------------------------------------------------------------|
e|------------------------------------------------------------------|

e|--16-13-----16-13-----------16-13-16-13------|
b|-------16-13-----16-13-16-13-----------16-13-|
g|---------------------------------------------|
d|---------------------------------------------| x3
a|---------------------------------------------|
e|---------------------------------------------|

a|-16--16---17-|
b|---16--16----|
g|-------------|
d|-------------|
a|-------------|
e|-------------|
Tap to rate this tab
# A B C D E F G H I J K L M N O P Q R S T U V W X Y Z