Song name
# A B C D E F G H I J K L M N O P Q R S T U V W X Y Z

Lower Class Brats - Rather Be Hated Lcb Army tab

Help us improve GuitareTab! Take a short survey!
I'm tired of there not being a tab for this song, because it's a great song. The only 
I couldn't figure out was the solo, so if someone can help me with that it would be great. 
you figure out the solo or think something is wrong e-mail me at xschoolsareprisonx138@gmail.com.

Intro I:
E----------------------------------------------------------|
B----------------------------------------------------------|
G----------------------------------------------------------|
D--9-x-x-x-x-x-9--7-7-7-9/-5---9-x-x-x-x-x-9--7-7-7-9/-5---|
A--9-x-x-x-x-x-9--7-7-7-9/-5---9-x-x-x-x-x-9--7-7-7-9/-5---|
E--7-x-x-x-x-x-7--5-5-5-7/-3---7-x-x-x-x-x-7--5-5-5-7/-3---|

Intro II:
E----------------------------------------------------------------------------|
B----------------------------------------------------------------------------|
G----------------------------------------------------------------------------|
D--9-x-x-x-x-x-9--7-7-7-9\-5--55555---9-x-x-x-x-x-7--5-5-5-9\-5--------------|
A--9-x-x-x-x-x-9--7-7-7-9\-5--55555---9-x-x-x-x-x-7--5-5-5-9\-5-\------------|pick slide\
E--7-x-x-x-x-x-7--5-5-5-7\-3--33333---7-x-x-x-x-x-7--3-3-3-7\-3--------------|

Into III/Chorus:                   x4
E--------------------------------|
B--------------------------------|
G-----------------------777------|
D--9-9999999999-9\-5555-777-7777-|
A--9-9999999999-9\-5555-555-7777-|
E--7-7777777777-7\-3333-----5555-|
     ..........

Verse:                    x4
E------------------------|
B------------------------|
G--------7777------------|
D--9999--7777--77777777--|
A--9999--5555--77777777--|
E--7777--------55555555--|

Intro I&II
Intro III
Verse
Intro II
Chorus
Verse
Intro II
Chorus
?Solo?
Intro I&II
Chorus
Verse
Intro I&II
Chorus
Intro I (just the first riff)end
Related for Rather Be Hated Lcb Army tab