Song name
# A B C D E F G H I J K L M N O P Q R S T U V W X Y Z

Lower Class Brats - Two In The Heart tab

Artist: Lower Class Brats
Song: Two In The Heart
Tuning: Standard

Intro
e--------------------------------------------------------------|
b--------------------------------------------------------------|
g---------------5-5-5-5-5-5-5-5--------------------------------|
d-7---7---7-----5-5-5-5-5-5-5-5---5---5---5----5-7-7-7-7-7-7-7-|
a-7---7---7-----3-3-3-3-3-3-3-3---5---5---5----5-7-7-7-7-7-7-7-|
E-5---5---5-----------------------3---3---3----3-5-5-5-5-5-5-5-|

Verse
"Love Me Once..."
e-----------------------------------------|
b-----------------------------------------|
g-------------5--5-5--------5--5-5--------|
d-7~~~~~~~~~~~5--5-5-5--5-5-5--5-5-5--5-5-|
a-7~~~~~~~~~~~3--3-3-5--5-5-3--3-3-5--5-5-|
E-5~~~~~~~~~~~-------3--3-3--------3--3-3-|

Verse End
e-----------------|
b-----------------|
g-----------------|
d-7-7-7-7-7-7-7-7-|
a-7-7-7-7-7-7-7-7-|
E-5-5-5-5-5-5-5-5-|

Chorus
"Two Two Two"
e----------------------------------------------------------------|
b----------------------------------------------------------------|
g---------------5-5-5-5-5-5-5-5----------------------------------|
d-7---7---7-----5-5-5-5-5-5-5-5---5-5-5-5-5-5-5-5~~-7-7-7-7-7-7--|
a-7---7---7-----3-3-3-3-3-3-3-3---5-5-5-5-5-5-5-5~~-7-7-7-7-7-7--|
E-5---5---5-----------------------3-3-3-3-3-3-3-3~~-5-5-5-5-5-5--|

Solo

Im Still working on it if anyone else figures its out feel free to send it to me.

2nd Guitar plays the verse during the solo


Order:
Intro x4
Verse x3
Veerse End x1
Chorus x2
Verse x3
Verse End x1
Chorus x4
Solo
Verse x3
Verse End x1
Chorus x4
end on Feedback

Thats It Feel free to comment
Tap to rate this tab
 
# A B C D E F G H I J K L M N O P Q R S T U V W X Y Z