Song name
# A B C D E F G H I J K L M N O P Q R S T U V W X Y Z

Lower Definition - The Ocean And The Beast tab

-------------------------------------------------------------------------------
			     The Ocean and the Beast - Lower D
-------------------------------------------------------------------------------
Tabbed by:
Email:

Tuning: drop C

D|---------------------------------------------------------------------------|
A|----------10---------------------------------------------------------------|
F|-------7-------------10---------10--12-----------10-----------9------------|
C|--0-7-----------0-8----------0--------------0-8---------0-7----------------|
G|---------------------------------------------------------------------------|
C|---------------------------------------------------------------------------|



D|--------------------------------------------------------------------------------|
A|---------------------------8p10-8---------5p6-5---------------------------------|
F|-------5h7----7p10---5h7------------5------------3------------------------------|play          
C|--5h7---------------------------------------------------------------------------|2xs
G|--------------------------------------------------------------------------------|
C|--------------------------------------------------------------------------------|

D|----------------------------------------------------------------------|
A|---10----------10------------------------8s10----------------8s10--8--|
F|------------------------------------7--------------------7------------|
C|--------7------------7---------7----------------------8---------------|
G|----------------------------------------------------------------------|
C|----------------------------------------------------------------------|


D|-------------------------8b--------------------------------------------------------|
A|--8p10-8---------------8-----------------------------------------------------------|
F|----------7---------7--------------------------------------------------------------|
C|-----------------------------------------------------------------------------------|
G|-----------------------------------------------------------------------------------|
C|-----------------------------------------------------------------------------------|
Tap to rate this tab
# A B C D E F G H I J K L M N O P Q R S T U V W X Y Z