Song name
# A B C D E F G H I J K L M N O P Q R S T U V W X Y Z

Lower Dens - Tea Lights tab

Band: Lower Dens
Song: Tea Lights
Album: Twin-Hand Movement (2010)

Chords used for the intro and most of the song:
|--------------|
|--------------|
|-4---2---0----|
|-5---3---2----|
|-5---3---2----|
|-3---1---0----|

Guitar riff during the chorus:
|------------------------------------------------------------|
|----------------8-8-----------------------------------------|
|-7-7----------------9-9--9-7--7-7---------------------------|
|-----9-9--9-10--------------------9-9--7-7/9-9-7-7-----7----|
|---------------------------------------------------10-------|
|------------------------------------------------------------|

Chords used during the solo:
|-----------------------|
|-7---3----8---7---5----|
|-7---4----9---7---5----|
|-9---5---10---9---7----|
|-9---5---10---9---7----|
|-7---3----8---7---5----|


|-14--17-16-14-17-14--17-16--14-----15---------8-----------------------------|
|-------------------------------15----------------8--10--10pb11r10-8---------|
|----------------------------------------7-8-9-----------------------8b9=====|
|----------------------------------------------------------------------------|
|----------------------------------------------------------------------------|
|----------------------------------------------------------------------------|


Lower Dens is signed by Gnomonsong
http://www.gnomonsong.com/lowerdens/
Tap to rate this tab
 
# A B C D E F G H I J K L M N O P Q R S T U V W X Y Z