Lower Dens - Completely Golden tab

Artist: Lower Dens
Song: Completely Golden
Album: Twin-Hand Movement (2010)

The whole song is based around the chord of E

Intro 
|------------------|
|------------------|
|------------------|
|------------------|
|---2---2-2-2-2----|
|-0---0---0-0-0----|

Chords used during the verse
|---------------------|
|----2-----3--2--4----|
|-1--2--1--2--2--4----|
|-2--2--2--0--2--4----|
|-2--0--2--0--0--2----|
|-0-----0--2----------|

Guitar riff
|-----------------------------------------------------------|
|-----------------------------------------------------------|
|-----------------------------------------------------------|
|-----------------------------------------------9--7--6---6-|
|-4--7--7-9-11---6-4-7---4--7--7-9-11---6----6----------7-7-|
|------------------------------------------7--------------7-|
Tap to rate this tab
 
# A B C D E F G H I J K L M N O P Q R S T U V W X Y Z