Song name
# A B C D E F G H I J K L M N O P Q R S T U V W X Y Z

Lower Dens - Truss Me tab

Artist: Lower Dens
Song: Truss Me
Album: Twin-Hand Movement (2010)

Intro
|----------------------------------|
|----------------------------------|
|---1-1\----3-3/----6-6/----8-8----|
|---2-2\----4-4/----7-7/----9-9----|
|---2-2\----4-4/----7-7/----9-9----|
|-0-0-0---2-2-2/--5-5-5/--7-7-7----|

The other progression used
|--------------------------------------|
|--------------------------------------|
|-6--3--1--3---6--3--1--3---6--3--8----|
|-7--4--2--4---7--4--2--4---7--4--9----|
|-7--4--2--4---7--4--2--4---7--4--9----|
|-5--2--0--2---5--2--0--2---5--2--7----|
Tap to rate this tab
 
# A B C D E F G H I J K L M N O P Q R S T U V W X Y Z