Song name
# A B C D E F G H I J K L M N O P Q R S T U V W X Y Z

Lower Than Atlantis - Deadliest Catch tab

Hey, this is my second tab I've posted on here. When my band assigned me this song I 
couldn't find a tab, so I made one, hope you enjoy. The song is in Drop D, I'm sure you'll 
be able to figure out the rhythm.

Please rate, cheers!

/ = slide

Intro:

E-----------------------------------------|
B-----------------------------------------|
G-----------------------------------------|
D-0-3-2-2-0-0-2-2-0-2-3-2-2-0-0-2-0-2-5---|
A-0-3-----0-0-----0-2-3-----0-0---------3-|
D-0-3-----0-0-----0-2-3-----0-0-----------|

E-----------------------------------------|
B-----------------------------------------|
G-----------------------------------------|
D-0-3-2-2-0-0-2-2-0-2-3-2-2-0-0-----2-----|
A-0-3-----0-0-----0-2-3-----0-0-----------|
D-0-3-----0-0-----0-2-3-----0-0-----------|

E-----------------------------------------|
B-----------------------------------------|
G-----------------------------------------|
D-0-3-2-2-0-0-2-2-0-2-3-2-2-0-0-2-0-2-5---|
A-0-3-----0-0-----0-2-3-----0-0---------3-|
D-0-3-----0-0-----0-2-3-----0-0-----------|

E-----------------------------------------|
B-----------------------------------------|
G-----------------------------------------|
D-0-3-2-2-0-0-2-2-0-2-3-2-2-0-0-----------|
A-0-3-----0-0-----0-2-3-----0-0-----------|
D-0-3-----0-0-----0-2-3-----0-0-----------|

Verse 1:

E-----------------------------------------|
B-----------------------------------------|
G-----------------------------------------|
D-3-3-3---0-0-0---3-3-3---0-0-0---5-5-----|
A-3-3-3---0-0-0---3-3-3---0-0-0---5-5-----|
D-3-3-3---0-0-0---3-3-3---0-0-0---5-5-----|

E-----------------------------------------|
B-----------------------------------------|
G-----------------------------------------|
D-3-3-3---0-0-0---3-3-3---0-0-0---5-5-----|
A-3-3-3---0-0-0---3-3-3---0-0-0---5-5-----|
D-3-3-3---0-0-0---3-3-3---0-0-0---5-5-----|

Pre-chorus:

E-------------------------------------------|
B-------------------------------------------|
G-7/9-9-9-9-7/9-9-9-9-7/9-9-9-9-14-14-14-14-|
D-------------------------------------------|
A-5/7-7-7-7-5/7-7-7-7-5/7-7-7-7-12-12-12-12-|
D-------------------------------------------|

E-------------------------------------------|
B-------------------------------------------|
G-7/9-9-9-9-7/9-9-9-9-7/9-9-9-9-14-14-14-14-|
D-------------------------------------------|
A-5/7-7-7-7-5/7-7-7-7-5/7-7-7-7-12-12-12-12-|
D-------------------------------------------|

E-------------------------------------------|
B-------------------------------------------|
G-7/9-9-9-9-7/9-9-9-9-7/9-9-9-9-14-14-14-14-|
D-------------------------------------------|
A-5/7-7-7-7-5/7-7-7-7-5/7-7-7-7-12-12-12-12-|
D-------------------------------------------|

E-----------------------------------------|
B-----------------------------------------|
G-7/9-9-9-9-7/9-9-9-9---------------------|
D---------------------6-6-6-6-6-6-6-6-----|
A-5/7-7-7-7-5/7-7-7-7-6-6-6-6-6-6-6-6-----|
D---------------------6-6-6-6-6-6-6-6-----|

Chorus:

E-----------------------------------------|
B-----------------------------------------|
G-2-2-4-5-5-5-----------------------------|
D-2-2-4-5-5-5-0-0-0--2-3-5-x-x-x----------|
A-0-0-2-3-3-3-0-0-0--2-3-5-x-x-x----------|
D-------------0-0-0--2-3-5-x-x-x----------|

E-----------------------------------------|
B-----------------------------------------|
G-2-2-4/5-5-5--------10-10-10-9-9-9-------|
D-2-2-4/5-5-5-3-3-3-----------------------|
A-0-0-2/3-3-3-3-3-3--8--8--8--7-7-7-------|
D-------------3-3-3-----------------------|

E-----------------------------------------|
B-----------------------------------------|
G-2-2-4-5-5-5-----------------------------|
D-2-2-4-5-5-5-0-0-0--2-3-5-x-x-x----------|
A-0-0-2-3-3-3-0-0-0--2-3-5-x-x-x----------|
D-------------0-0-0--2-3-5-x-x-x----------|

E-----------------------------------------|
B-----------------------------------------|
G-2-2-4/5-5-5--------10-10-10-9-9-9-------|
D-2-2-4/5-5-5-3-3-3-----------------------|
A-0-0-2/3-3-3-3-3-3--8--8--8--7-7-7-------|
D-------------3-3-3-----------------------|

Instrumental:

*Just Bass*

E---------|
B---------|
G---------|
D-0-0---2-|
A-0-0-----|
D-0-0-----|

Verse 2:


E-----------------------------------------|
B-----------------------------------------|
G-----------------------------------------|
D-3-3-3---0-0-0---3-3-3---0-0-0---5-5-----|
A-3-3-3---0-0-0---3-3-3---0-0-0---5-5-----|
D-3-3-3---0-0-0---3-3-3---0-0-0---5-5-----|

E-----------------------------------------|
B-----------------------------------------|
G-----------------------------------------|
D-3-3-3---0-0-0---3-3-3---0-0-0---5-5-----|
A-3-3-3---0-0-0---3-3-3---0-0-0---5-5-----|
D-3-3-3---0-0-0---3-3-3---0-0-0---5-5-----|

Pre-Chorus:

E-------------------------------------------|
B-------------------------------------------|
G-7/9-9-9-9-7/9-9-9-9-7/9-9-9-9-14-14-14-14-|
D-------------------------------------------|
A-5/7-7-7-7-5/7-7-7-7-5/7-7-7-7-12-12-12-12-|
D-------------------------------------------|

E-------------------------------------------|
B-------------------------------------------|
G-7/9-9-9-9-7/9-9-9-9-7/9-9-9-9-14-14-14-14-|
D-------------------------------------------|
A-5/7-7-7-7-5/7-7-7-7-5/7-7-7-7-12-12-12-12-|
D-------------------------------------------|

E-------------------------------------------|
B-------------------------------------------|
G-7/9-9-9-9-7/9-9-9-9-7/9-9-9-9-14-14-14-14-|
D-------------------------------------------|
A-5/7-7-7-7-5/7-7-7-7-5/7-7-7-7-12-12-12-12-|
D-------------------------------------------|

E-----------------------------------------|
B-----------------------------------------|
G-7/9-9-9-9-7/9-9-9-9---------------------|
D---------------------6-6-6-6-6-6-6-6-----|
A-5/7-7-7-7-5/7-7-7-7-6-6-6-6-6-6-6-6-----|
D---------------------6-6-6-6-6-6-6-6-----|

Chorus:

E-----------------------------------------|
B-----------------------------------------|
G-2-2-4-5-5-5-----------------------------|
D-2-2-4-5-5-5-0-0-0--2-3-5-x-x-x----------|
A-0-0-2-3-3-3-0-0-0--2-3-5-x-x-x----------|
D-------------0-0-0--2-3-5-x-x-x----------|

E-----------------------------------------|
B-----------------------------------------|
G-2-2-4/5-5-5--------10-10-10-9-9-9-------|
D-2-2-4/5-5-5-3-3-3-----------------------|
A-0-0-2/3-3-3-3-3-3--8--8--8--7-7-7-------|
D-------------3-3-3-----------------------|

E-----------------------------------------|
B-----------------------------------------|
G-2-2-4-5-5-5-----------------------------|
D-2-2-4-5-5-5-0-0-0--2-3-5-x-x-x----------|
A-0-0-2-3-3-3-0-0-0--2-3-5-x-x-x----------|
D-------------0-0-0--2-3-5-x-x-x----------|

E-----------------------------------------|
B-----------------------------------------|
G-2-2-4/5-5-5--------10-10--9--9----------|
D-2-2-4/5-5-5-3-3-3-----------------------|
A-0-0-2/3-3-3-3-3-3--8--8---7--7----------|
D-------------3-3-3-----------------------|

Bridge:

Couldn't be bothered to figure the rhythm part out, soz

E-12-------12-------12-------12------------|
B----10-------10-------10-------10---------|
G-------12-------12-------12-------12------|
D------------------------------------------|
A------------------------------------------|ETC...
D------------------------------------------|

Chorus:

E-----------------------------------------|
B-----------------------------------------|
G-2-2-4-5-5-5-----------------------------|
D-2-2-4-5-5-5-0-0-0--2-3-5-x-x-x----------|
A-0-0-2-3-3-3-0-0-0--2-3-5-x-x-x----------|
D-------------0-0-0--2-3-5-x-x-x----------|

E-----------------------------------------|
B-----------------------------------------|
G-2-2-4/5-5-5--------10-10-10-9-9-9-------|
D-2-2-4/5-5-5-3-3-3-----------------------|
A-0-0-2/3-3-3-3-3-3--8--8--8--7-7-7-------|
D-------------3-3-3-----------------------|


E-----------------------------------------|
B-----------------------------------------|
G-2-2-4-5-5-5-----------------------------|
D-2-2-4-5-5-5-0-0-0--2-3-5-x-x-x----------|
A-0-0-2-3-3-3-0-0-0--2-3-5-x-x-x----------|
D-------------0-0-0--2-3-5-x-x-x----------|

E-----------------------------------------|
B-----------------------------------------|
G-2-2-4/5-5-5--------10-10-10-9-9-9-------|
D-2-2-4/5-5-5-3-3-3-----------------------|
A-0-0-2/3-3-3-3-3-3--8--8--8--7-7-7-------|
D-------------3-3-3-----------------------|

Intro/Outro:

E-----------------------------------------|
B-----------------------------------------|
G-----------------------------------------|
D-0-3-2-2-0-0-2-2-0-2-3-2-2-0-0-2-0-2-5---|
A-0-3-----0-0-----0-2-3-----0-0---------3-|
D-0-3-----0-0-----0-2-3-----0-0-----------|

E-----------------------------------------|
B-----------------------------------------|
G-----------------------------------------|
D-0-3-2-2-0-0-2-2-0-2-3-2-2-0-0-----------|
A-0-3-----0-0-----0-2-3-----0-0-----------|
D-0-3-----0-0-----0-2-3-----0-0-----------|
Tap to rate this tab
 
# A B C D E F G H I J K L M N O P Q R S T U V W X Y Z