Song name
# A B C D E F G H I J K L M N O P Q R S T U V W X Y Z

Lowest Of The Low - City Full Of Cowards tab

Lowest of the Low - City Full of Cowards

Capo 2

Intro
=====
                                 1st time   2nd time
                              |---------------------------| ^ v ^  ^
E-----------------------------------------|---------------|
B----------1----1---------------1--1--1---|-1-1-1--1------|
G----------0h2--0--0--0---------2-----0--*|-2-2-2--0h2----|
D--------0---------2----2^0-----3-----3--*|-3-3-3--3------|
A----0-3-----------3--------0-------------|---------------|
E-----------------------------------------|---------------|

                                ^ v ^  ^
E--------------------------------------------------------|
B--------1---1-1----------------1-1-1--1-----------------|
G--------0h2-0---0h2-2----------2-2-2--0h2---------------|
D------0-0h2-0---0h2---2^0------3-3-3--3-----------------|
A---0-3---------------------0----------------------------|
E--------------------------------------------------------|

         ^   v ^ ^          ^ v ^  ^
E------------0-0---------------------------|-------------|
B--------1---1-1-1----------1-1-1--1-------|-------------|
G--------0---0-0-0-----0----2-2-2--0h2---*-|-------------|
D------0-0h2-2-2-0h2---0-0--3-3-3--3-----*-|-------------|
A--0-3---3---3-3-3---2---2-----------------|-------------|
E--------------------3---------------------|-------------|

1.              I used to have a friend
2. Who skipped a maximum security prison (go to 3.)
4. He doesn't call any more
5. He spends six out of seven days drunk and passed out on the floor
6. And Jasmine got burned by her friends
7. Who said that she should go running after him (go to 8.)
9. That's what she says tonight (go to 10.)

         ^   v ^ ^          ^ v ^  ^
E--------------------------------------------------------|
B--------1---1-1-0-0--------1-1-1--1---------------------|
G--------0h2-2-2-0-----0----2-2-2--0h2-------------------|
D------0-0h2-2-2-2-----0-0--3-3-3--3---------------------|
A--0-3-----------2---2---2-------------------------------|
E--------------------3-----------------------------------|

3. And he used to call her Jasmine
8. But she'll never make that mistake again

                                       |--- 3X -----|
         ^   v ^ ^          ^ ^ v  ^     ^ v ^
E------------0-0-----------------------|------------|----|
B--------1---1-1-1----------1-1-1--1---|-1-1-1------|----|
G--------0---0-0-0-----0----2-2-2--0h2-|-2-2-0h2--*-|----|
D------0-0h2-2-2-0h2---0-0--3-3-3--3---|-3-3-3----*-|----|
A--0-3---3---3-3-3---2---2-------------|------------|----|
E--------------------3-----------------|------------|----|

10. But she kisses his picture and turns out the light...


Bridge
======
C G F  C G F  Am 
G F  C G F  C G F

During following verses Ron plays the F chords frequently hammering
onto the B string similar to during the first verse.


Verse 2:
========
   C                         G  F
Yeah a city full of cowards is this
           C                 G  F
We give'em just enough rope to commit
                 Am       Em    G        F
But there's been too much wine under the bridge
       C          G       F
Any my eyes have become immune
         C         G       F
To every thing I take from you


Verse 3 (same chords as Verse 2):
=======

You wander around on a crutch
Why don't you just lay it down and shut up
With thoughts as pure as the driven slush
And a cool insanity
From everything you take from me


Bridge:
=======
Am                    F   G
Now get the pigs into the pen
           F                Am
There's a padlock slappin' sound
           F          G
Put a shotgun to his head
      F         Am
And hit the ground
              F        G
Separate the meat from bone
      F        Am
But take some care
                F            G
'Cause blood is everywhere....everywhere everywhere.


Electric Guitar Solo (sorry don't have that figured out)
====================

Solo played over
Am F G (2X)
C G F (2X)

Bridge
=========
 G
Waiting.  Salivating. Speaking, sink your teeth in.
G                                                    F
Sleeping.  I'm too deep in, digging your way out of here


Verse 4:
========
C                      G   F
One more beer and I'll go home
        C                                 G              F
I'm hungover with philosophies of every woman that I've known
Am                   G         F
Sex isn't sex and love isn't stone.
       C       G     F
And I wish I could relax
             C                G          F
But another day has fallen through the cracks.


Ending:
=======

E-------------------------------1------------|
B--------1-----1-----1----------1------------|
G--------0h2-0---0h2---2p0------2------------|
D------0-0h2-0---0h2-------0----3------------|
A--0-3-----------------------0---------------|
E--------------------------------------------|
Tap to rate this tab
# A B C D E F G H I J K L M N O P Q R S T U V W X Y Z