Song name
# A B C D E F G H I J K L M N O P Q R S T U V W X Y Z

Lowest Of The Low - Under The Carlaw Bridge tab

Under the Carlaw Bridge - The Lowest of the Low

Riff 1:
=======
-----------------0---|
-----1-----1-----1---|
---2-----0-----0-0---|
-3-----2-----0---2---|
-----------------3---|
---------------------|

Verse 1:
========
                C           F       C
It's another cold one, what have I done?
Am                              F
Feels so hollow and cold it seems
C                             F                   C
I could find a clear motto, at the bottom of a bottle
Am                                    F           C
But I'm two times the coward that I ever thought I'd be

Chorus:
=======
                 Am                 Em
Because it ain't clear, no it ain't clear
         Riff 1
What the hell am I doing here?
            Am                  Em
No it ain't clear, but it rings in my ear
          Riff 1
Somewhere under the Carlaw Bridge

Verse 2:
========

Now there's snow on the corner, where I stood with my old friend
Talked about revolution, with two loaded guitars
And its only four blocks, up to 'The Only'
But at times like this, you know it seems three times as far

Chorus

Bridge:
=======

Am                    C
Where's the banner... Where's the headline
G                   F
Future planners... And hungry deadlines
Am                        C
There's true believers... And crazy Fridays
G                     F
And sham decievers... These can't be my days
Oooh, maybe next time

Solo:
=====

-1p0---0-------1-1-0------------------------------|
-----3---3-1-3-------1-----1-3p1---3p1------------|
-----------------------0-2-------0-----0----------|
-----------------------------------------3-2-0----|
-----------------------------------------------3--|
--------------------------------------------------|
(continued)
-----------------------------------------------------|
---------------------------------------------5-------|
---------------------------------5---7h5---5---5-7-5-|
---------5-7-7-5---------------7---7-----7-----------|
-3-(5)s7---------8-7-7h8p7-5-------------------------|
-----------------------------8-----------------------|
(continued)
-------5-5-5-5h7p5-------------------------------------|
-------------------5-5-5-6-6-5-5-----------------------|
-----5---------------------------7-5-------------------|
-5h7---------------------------------------------------|
-------------------------------------------------------|
-------------------------------------------------------|
something like that

Verse 3: (softer)
========

Now my coffee's gone cold, and my hearts gone colder
Think I'm reading to much, it feels like twenty below
And it's a kick in the nuts, when your vision clears up
and you realize you've only been playing with change
         Am                       F            C (continue these 3 chords)
yeah you realize you've only been playing with change
yeah you realize you've only been playing with change
and there's people more together than you'll ever be
yeah there's people more together than you'll ever be
there's people more together than I'll ever be
and it makes you wanna ask yourself whats happening to me
yeah it makes you wanna ask yourself whats happening to me
yeah it makes you wanna ask yourself whats happening... yeah
Tap to rate this tab
# A B C D E F G H I J K L M N O P Q R S T U V W X Y Z