Lowest Of The Low - Subversives tab

Song: Subversives
Artist: Lowest of the Low

Chords:   E      022100
          B      x24442
          A      x02220  or  A   577655
          Ab     466544
          Dbm    046654
          F#m    244222

[Intro]

   1   2   3   4   | 1   2   3   4   | 1   2   3   4   | 1   2   3   4   |
                   |                 |                 |                 |
e|-------0---------|-----------------|-----------------|-----------------|
B|-----------------|-------4---------|-------2---------|-------5\4-------|
G|-----1-----------|-----4-----------|-----2-----------|-----4-----4-----|
D|---2-------------|---4-------------|---2-------------|---4---------4---|
A|-----------------|-2-----------2---|-0-----------0h2-|-2-----------2---|
E|-0-----------0---|-----------------|-----------------|-----------------|

   1   2   3   4   | 1   2   3   4   | 1   2   3   4   | 1   2   3   4   |
                   |                 |                 |                 |
e|-------0---------|-----------------|-----------------|-----------------|
B|-----------------|-------4---------|-------2---------|-----------------|
G|-----1-----------|-----4-----------|-----2-----------|-----4-4-4-4-4---|
D|---2-------------|---4-------------|---2-------------|---4---4-4-4-4---|
A|-----------------|-2-----------2---|-0-----------0h2-|-2-----2-2-2-2---|
E|-0-----------0---|-----------------|-----------------|-----------------|

----------------------------------------------------------------------------
Verse

   1   2   3   4   | 1   2   3   4   | 1   2   3   4   | 1   2   3   4   |
                   |                 |                 |                 |
e|-------0---------|-----------------|-----------------|-----------------|
B|-----------------|-------4---------|-------2---------|-------5\4-------|
G|-----1-----------|-----4-----------|-----2-----------|-----4-----4-----|
D|---2-------------|---4-------------|---2-------------|---4---------4---|
A|-----------------|-2-----------2---|-0-----------0h2-|-2-----------2---|
E|-0-----------0---|-----------------|-----------------|-----------------|


   1   2   3   4   | 1   2   3   4   | 1   2   3   4   | 1   2   3   4   |
                   |                 |                 |                 |
e|-------0---------|-----------------|-----------------|-----------------|
B|-----------------|-------4---------|-------2---------|-------5\4-------|
G|-----1-----------|-----4-----------|-----2-----------|-----4-----4-----|
D|---2-------------|---4-------------|---2-------------|---4---------4---|
A|-----------------|-2-----------2---|-0-----------0h2-|-2-----------2---|
E|-0-----------0---|-----------------|-----------------|-----------------|

   1   2   3   4   | 1   2   3   4   | 1   2   3   4   | 1   2   3   4   |
                   |                 |                 |                 |
e|-----------------|-----------------|-----------------|-----------------|
B|-------4---------|-------4---------|-------2---------|-------2---------|
G|-----6-----------|-----6-----------|-----4-----------|-----2-----------|
D|---4-------------|---4-------------|---2-------------|---2-------------|
A|-6---------------|-6-----------6---|-4-----------4-2-|-0-----------0h2-|
E|-----------------|-----------------|-----------------|-----------------|

   1   2   3   4   | 1   2   3   4   | 1   2   3   4   | 1   2   3   4   |
                   |                 |                 |                 |
e|-------0---------|-----------------|-----------------|
B|-----------------|-------5\4---5\4-|-----5\4-
G|-----1-----------|-----4-----4-----|---4------
D|---2-------------|---4------
A|-----------------|-2--------
E|-0-----------0---|


[Verse 1]
E       B                   A  B
There's something subversive, about you and me
E               B                   A
Cause there's a market value on love
    B
And we're getting something for free
A            Ab                  Dbm
I don't know why but when we're apart
          A                E
Something makes me want to start
         B                      
Setting fires and kicking down doors
A         Ab              Dbm
I hope we never have to resort
   A                E                 B
To dividing what is mine and what is yours

[Verse 2]
E        B                A          B 
There's something coercive about the way some people smile
E     B                 A    B
Wide open as if to say "Come on in and browse a while"
A       Ab                            Dbm
And sometimes when your resistance is low
  A             E               B
Remember that I know who's your favourite Pogue

[Bridge]
A  Ab  Dbm   A   E  B

[Chorus]
   F#m       B           
   There's a place in my soul where
   A               E
   No one else can adore you
   F#m          B 
   And like the poet-soldier says
   A                      E      B
   I would spill my blood for you

[Verse 3]
E       B                A  B           
There's nothing conclusive in this whole world
E     B                    A
Cause flags can change and martyrs die
B
And there's many towns left to burn
A       Ab                      Dbm
But somewhere between there and here
    A                 E
For one night hold me near
            B
And sing my shallow tears
A          Ab                  Dbm
And we'll drink, but not to forget
    A             E             B
But to remember instead all our happy years

[Outro]
Dbm A F#m B   (repeat to fade)
Tap to rate this tab
 
# A B C D E F G H I J K L M N O P Q R S T U V W X Y Z